» » »

Love To Burn Tabs (ver.1)

Artists:  A B C D E F G H I J K L M N O P Q R S T U V W X Y Z # 

Love To Burn Tabs (ver.1)

Neil Young
Rating:
0/5 (0 votes)

Hard to play? Try these video lessons and learn fast.
                Mail me if you want to mail me....

Verses:
---------0---------------0----------------------------------------------------
-----0-3---0--\5-5-/3-3-------------------------------------------------------
--------------\6---/4---------------------------------------------------------
-2-x--------------------------------------------------------------------------
-2-x--------------------------------------------------------------------------
-0-x--------------------------------------------------------------------------
                                                                              
Before the end of the verses:
"You've gotta take the first step.."
--------------3---------------------------------------------------------------
----------2-2-3---------------------------------------------------------------
----------2-2-0---------------------------------------------------------------
-2--2-2---2-2-0---------------------------------------------------------------
-2--2-2---0-0-2---------------------------------------------------------------
-0--0-0-------3---------------------------------------------------------------
                                                                              

-----------5---5---5---5------------------------------------------------------
---------3---3---3---3--------------------------------------------------------
----------------------------------2-2--2--------------------------------------
----------------------------------2-2--2--------------------------------------
----------------------------------0-0--0--------------------------------------
-0---3--------------------0---3-----------------------------------------------
 "You've got to burn..........You better take a chance on love"      

I think this is right tabbed, but dont play the E:s exactly as it stands... 
Just listen to the song before you play it and you will learn fast.

/Daniel W
            
Hard to play? Try these video lessons and learn fast. | Correct




comments powered by Disqus
↑ Back to top | Tablatures and chords are parodies/interpretations of the original songs. You may use it for private study, scholarship, research or language learning purposes only