» » »

Neil Young, Lookin For A Love Bass tabs (ver.1)

Artists:  A B C D E F G H I J K L M N O P Q R S T U V W X Y Z # 

Lookin For A Love Bass tabs (ver.1)

Neil Young Tabs
Rating:
0/5 (0 votes)
Lookin For A Love lessons Tabs too difficult? Try these video lessons and learn fast
                Lookin' for a Love
Neil Young & Crazy Horse
Bass Tab
Original Bassist: Billy Talbot

Tempo=144BPM, 4/4 Time

Intro

|-----------|-----------|-----------|-----------|
|-----------|-----------|-----------|-----------|
|-7---------|-7---------|-7---------|-7---------|
|------7----|------7----|------7----|------7----|

Verse

|-----------|-----------|-----------|-----------|
|-----------|-----------|-----------|-----------|
|-7---------|-7---------|-7---------|-7---------|
|------7----|------7----|------7----|------7----|

|-----------|------------|-----------|-----------|
|-----------|------------|-----------|-9---------|
|-7---------|-7----7--9--|------9----|------9----|
|------7----|------------|-7---------|-----------|

|-----------|-----------|-----------|------------|
|-----------|-----------|-7---------|-7----7--9--|
|-7---------|-7----7----|------7----|------------|
|------7----|-----------|-----------|------------|

|-----------|-----------|-----------|-----------|
|-----------|-----------|-----------|-----------|
|-7---------|------9----|-7---------|-7---------|
|------7----|-7---------|------7----|------7----|

Verse

|-----------|-----------|-----------|-----------|
|-----------|-----------|-----------|-----------|
|-7---------|-7---------|-7---------|-7---------|
|------7----|------7----|------7----|------7----|

|-----------|------------|-----------|-----------|
|-----------|------------|-----------|-----------|
|-7---------|-7----7--9--|------9----|------9----|
|------7----|------------|-7---------|-7---------|

|-----------|-----------|-----------|-----------|
|-----------|-----------|-7---------|-7---------|
|-7---------|-7----7----|------7----|------7----|
|------7----|-----------|-----------|-----------|

|-----------|-----------|-----------|------------|
|-----------|-----------|-----------|------------|
|-7---------|------9----|-7---------|-7----------|
|------7----|-7---------|------7----|------7--9--|

Chorus

|----------|----------|----------|------------|
|----------|----------|----------|------------|
|-7--------|----------|----------|------4--6--|
|----------|-7--------|-5--------|-5----------|

|----------|----------|----------|-------------|
|----------|----------|----------|-------------|
|-7--------|----------|----------|-------------|
|----------|-7--------|-5--------|-5----5-x-7--|

|-----------|----------|----------|----------|
|-----------|----------|----------|----------|
|-----------|----------|----------|----------|
|-9----9----|-9--------|-7--------|-7--------|

|-----------|----------|----------|-----|
|-----------|----------|----------|-----|
|-----------|----------|----------|-----|
|-5------5--|-4--------|-2--------|-----|

Solo

|-----------|-----------|-----------|-----------|
|-----------|-----------|-----------|-----------|
|-7---------|-7---------|-7---------|-7---------|
|------7----|------7----|------7----|------7----|

|-----------|------------|-----------|-----------|
|-----------|------------|-----------|-----------|
|-7---------|-7----7--9--|------9----|------9----|
|------7----|------------|-7---------|-7---------|

|-----------|-----------|-----------|------------|
|-----------|-----------|-7---------|-7----7-----|
|-7---------|-7---------|------7----|---------9--|
|------7----|------7----|-----------|------------|

|-----------|-----------|-----------|------------|
|-----------|-----------|-----------|------------|
|-7---------|------9----|-7---------|-7----------|
|------7----|-7---------|------7----|------7--9--|

Chorus

|-----------|----------|-----------|------------|
|-----------|----------|-----------|------------|
|-7----7----|----------|-----------|------4--6--|
|-----------|-7--------|-5----5----|-5----------|

|-----------|----------|----------|--------------|
|-----------|----------|----------|--------------|
|-7----7----|----------|----------|--------------|
|-----------|-7--------|-5--------|-5-x-5--7--8--|

|-----------|-----------|----------|-----|
|-----------|-----------|----------|-----|
|-----------|-----------|----------|-----|
|-9------9--|-9------9--|-7--------|-----|

|-----------|----------|----------|-----|
|-----------|----------|----------|-----|
|-----------|----------|----------|-----|
|-5------5--|-4--------|-2--------|-----|

Verse

|-----------|-----------|-----------|-----------|
|-----------|-----------|-----------|-----------|
|-7---------|-7---------|-7---------|-7---------|
|------7----|------7----|------7----|------7----|

|-----------|------------|-----------|-----------|
|-----------|------------|-----------|-----------|
|-7---------|-7----7--9--|------9----|------9----|
|------7----|------------|-7---------|-7---------|

|-----------|-----------|-----------|-----------|
|-----------|-----------|-7---------|-7---------|
|-7---------|-7------9--|------7----|------7----|
|------7----|-----------|-----------|-----------|

|-----------|-----------|-----------|------------|
|-----------|-----------|-----------|------------|
|-7---------|------9----|-7---------|-7----------|
|------7----|-7---------|------7----|------7--9--|

Ending

|----------|----------|----------|------------|
|----------|----------|----------|------------|
|-7--------|----------|----------|------4--6--|
|----------|-7--------|-5--------|-5----------|

|----------|----------|----------|------------|
|----------|----------|----------|------------|
|-7--------|----------|----------|------------|
|----------|-7--------|-5--------|-5----5--7--|

|-----------|-----------|----------|----------|
|-----------|-----------|----------|----------|
|-----------|-----------|----------|----------|
|-9----9----|-9----9----|-7--------|-7--------|

|-----------|----------|----------|-----|
|-----------|----------|----------|-----|
|-----------|----------|----------|-----|
|-5------5--|-4--------|-2--------|-----|
            

comments powered by Disqus
↑ Back to top | Neil Young Bass for Lookin For A Love. Lyrics for acoustic guitar and electric guitar. Tablatures and chords are parodies/interpretations of the original songs. You may use it for private study, scholarship, research or language learning purposes only