» » »

Ive Been Waiting For You Bass tabs (ver.1)

Artists:  A B C D E F G H I J K L M N O P Q R S T U V W X Y Z # 

Ive Been Waiting For You Bass tabs (ver.1)

Neil Young
Rating:
0/5 (0 votes)

Hard to play? Try these video lessons and learn fast.
                Standard Tuning 

Intro
|-7-----------7---7---------------5--|------5---5-----------------2----4-|
|------------------------------------|-----------------------------------|
|------------------------------------|-----------------------------------|
|------------------------------------|-----------------------------------|

|-5-----------5---5------------------|-----------------------------------|
|---------------------------------7--|------7---7------------------------|
|------------------------------------|-----------------------------------|
|------------------------------------|-----------------------------------|

|-7-----------7---7---------------5--|------5---5-----------------2----4-|
|------------------------------------|-----------------------------------|
|------------------------------------|-----------------------------------|
|------------------------------------|-----------------------------------|

|-5-----------5---5------------------|-----------------------------------|
|---------------------------------7--|------7---7------------------------|
|------------------------------------|-----------------------------------|
|------------------------------------|-----------------------------------|

Verse 
|------------------------------------|-----------------------------------|
|-7-----7--------7----7-------7------|----------4----7------4------------|
|------------5-----------------------|-5----7--------------------7----5--|
|------------------------------------|-----------------------------------|

|-------------------------------5----|-------------------------------7---|
|-----------------5------------------|---------------7-------------------|
|-3---3------3-------3---3-----------|-5----5----5---------5--5---5------|
|------------------------------------|-----------------------------------|

|------------------------------------|-------------------------------5---|
|-----------4----7------4------------|--------------5--------------------|
|-5-5--7---------------------7----5--|-3----3----3---------3--3---3------|
|------------------------------------|-----------------------------------|

|------------------------------------|-----------5-------5--------5------|
|-----------4----7------4------------|------5----------------------------|
|-5-5--7---------------------7----5--|-3-------------3--------3--------3-|
|------------------------------------|-----------------------------------|

|------------------------------------|-----------------------------------|
|-7-----7--------7----7-------7------|----------4----7------4------------|
|------------5-----------------------|-5----7--------------------7----5--|
|------------------------------------|-----------------------------------|

|-------------------------------5----|-------------------------------7---|
|-----------------5------------------|---------------7-------------------|
|-3---3------3-------3---3-----------|-5----5----5---------5--5---5------|
|------------------------------------|-----------------------------------|

|------------------------------------|-------------------------------5---|
|-----------4----7------4------------|--------------5--------------------|
|-5-5--7---------------------7----5--|-3----3----3---------3--3---3------|
|------------------------------------|-----------------------------------|

|------------------------------------|-----------5-------5--------5------|
|-----------4----7------4------------|------5----------------------------|
|-5-5--7---------------------7----5--|-3-------------3--------3--------3-|
|------------------------------------|-----------------------------------|


Chorus
|-2---2---2---2---2---2---2---2--|--------------------------------|
|--------------------------------|-5---5---5---5---5---5---5---5--|
|--------------------------------|--------------------------------|
|--------------------------------|--------------------------------|

|--------------------------------|--------------------------------|
|-4---4---4---4---4---4---4---4--|-3---3---3---3---3---3----------|
|--------------------------------|---------------------------3\---|
|--------------------------------|--------------------------------|

|-7-----------7---7---------------5--|------5---5------------------------|
|------------------------------------|-----------------------------------|
|------------------------------------|-----------------------------------|
|------------------------------------|-----------------------------------|

|-5-----------5---5------------------|-----------------------------------|
|---------------------------------7--|------7---7------------------------|
|------------------------------------|-----------------------------------|
|------------------------------------|-----------------------------------|

Solo
|------------------------------------|-----------------------------------|
|-7-----7--------7----7-------7------|----------4----7------4------------|
|------------5-----------------------|-5----7--------------------7----5--|
|------------------------------------|-----------------------------------|

|-------------------------------5----|-------------------------------7---|
|-----------------5------------------|---------------7-------------------|
|-3---3------3-------3---3-----------|-5----5----5---------5--5---5------|
|------------------------------------|-----------------------------------|

|------------------------------------|-------------------------------5---|
|-----------4----7------4------------|--------------5--------------------|
|-5-5--7---------------------7----5--|-3----3----3---------3--3---3------|
|------------------------------------|-----------------------------------|

|------------------------------------|-----------5-------5--------5------|
|-----------4----7------4------------|------5----------------------------|
|-5-5--7---------------------7----5--|-3-------------3--------3--------3-|
|------------------------------------|-----------------------------------|

|------------------------------------|-----------------------------------|
|-7-----7--------7----7-------7------|----------4----7------4------------|
|------------5-----------------------|-5----7--------------------7----5--|
|------------------------------------|-----------------------------------|

|-------------------------------5----|-------------------------------7---|
|-----------------5------------------|---------------7-------------------|
|-3---3------3-------3---3-----------|-5----5----5---------5--5---5------|
|------------------------------------|-----------------------------------|

|------------------------------------|-------------------------------5---|
|-----------4----7------4------------|--------------5--------------------|
|-5-5--7---------------------7----5--|-3----3----3---------3--3---3------|
|------------------------------------|-----------------------------------|

|------------------------------------|-----------5-------5--------5------|
|-----------4----7------4------------|------5----------------------------|
|-5-5--7---------------------7----5--|-3-------------3--------3--------3-|
|------------------------------------|-----------------------------------|

Chorus
|-2---2---2---2---2---2---2---2--|--------------------------------|
|--------------------------------|-5---5---5---5---5---5---5---5--|
|--------------------------------|--------------------------------|
|--------------------------------|--------------------------------|

|--------------------------------|--------------------------------|
|-4---4---4---4---4---4---4---4--|-3---3---3---3---3---3----------|
|--------------------------------|---------------------------3\---|
|--------------------------------|--------------------------------|

|-7-----------7---7---------------5--|------5---5------------------------|
|------------------------------------|-----------------------------------|
|------------------------------------|-----------------------------------|
|------------------------------------|-----------------------------------|

|-5-----------5---5------------------|-----------------------------------|
|---------------------------------7--|------7---7------------------------|
|------------------------------------|-----------------------------------|

|-7-----------7---7---------------5--|------5---5------------------------|
|------------------------------------|-----------------------------------|
|------------------------------------|-----------------------------------|
|------------------------------------|-----------------------------------|

|-5-----------5---5------------------|-----------------------------------|
|---------------------------------7--|------7---7------------------------|
|------------------------------------|-----------------------------------|
|------------------------------------|-----------------------------------|
            
Hard to play? Try these video lessons and learn fast. | Correct




comments powered by Disqus
↑ Back to top | Tablatures and chords are parodies/interpretations of the original songs. You may use it for private study, scholarship, research or language learning purposes only