» » »

Neil Young, Harvest Moon Bass tabs (ver.2)

Artists:  A B C D E F G H I J K L M N O P Q R S T U V W X Y Z # 

Harvest Moon Bass tabs (ver.2)

Neil Young Tabs
Rating:
0/5 (0 votes)
Harvest Moon lessons Tabs too difficult? Try these video lessons and learn fast
                Standard Tuning

Intro
|----------------------------------|---------------------------------|
|----------------------------------|---------------------------------|
|--5-------------------------------|--5------------------------------|
|------------------5---------------|----------------5----------------|

|----------------------------------|---------------------------------|
|----------------------------------|----------------/7---------------|
|--5-------------------------------|--5------------------------------|
|------------------5---------------|---------------------------------|

|----------------------------------|---------------------------------|
|----------------------------------|---------------------------------|
|--5-------------------------------|--5---------------------7--------|
|------------------5---------------|----------------5-----------7----|

|----------------------------------|---------------------------------|
|----------------------------------|---------------------------------|
|--5-------------------------------|--5------------------------------|
|------------------5---------------|----------------5----------------|

Come a little bit closer..
|----------------------------------|---------------------------------|
|----------------------------------|---------------------------------|
|--7-------------------------------|--7------------------------------|
|------------------7--7-7----------|----------------7----------------|

|----------------------------------|---------------------------------|
|----------------------------------|---------------------------------|
|--7-------------------------------|--7------------------------------|
|------------------7--7--7-------7-|----------------7--------5-------|

|----------------------------------|---------------------------------|
|----------------------------------|---------------------------------|
|--5-------------------------------|--5------------------------------|
|------------------5---------------|----------------5--------5\------|

|----------------------------------|---------------------------------|
|----------------------------------|---------------------------------|
|--5-------------------------------|--5----------------------------5-|
|--5---------------5---------------|----------------5--------7-5-7---|

Just like children sleeping..
|----------------------------------|---------------------------------|
|----------------------------------|---------------------------------|
|--7-------------------------------|--7------------------------------|
|------------------7--7-7----------|---------------7---7------------|

|----------------------------------|---------------------------------|
|----------------------------------|---------------------------------|
|--7-------------------------------|--7------------------------------|
|--------------------7--7--7-----7-|----------------7--5------7------|

|----------------------------------|---------------------------------|
|----------------------------------|---------------------------------|
|--5-------------------------------|--5------------------------------|
|------------------5---------------|----------------5----------------|

|----------------------------------|---------------------------------|
|----------------------------------|---------------------------------|
|--5-------------------------------|--5------------------------------|
|------------------5---------------|----------------5----------------|

But there's a full moon rising..
|----------------------------------|---------------------------------|
|----------------------------------|---------------------------------|
|--7-------------------------------|--7------------------------------|
|--------------------7-------------|----------------7----------------|

|----------------------------------|---------------------------------|
|----------------------------------|----------------/7---------------|
|--7-------------------------------|--7------------------------------|
|--------------------7-------------|---------------------------------|

|----------------------------------|---------------------------------|
|----------------------------------|---------------------------------|
|--5-------------------------------|--5------------------------------|
|------------------5---------------|----------------5----------------|

|----------------------------------|---------------------------------|
|----------------------------------|---------------------------------|
|--5-------------------------------|--5------------------------------|
|------------------5---------------|----------------5----------------|

We know where the music's playing..
|----------------------------------|---------------------------------|
|----------------------------------|---------------------------------|
|--7-------------------------------|--7----------------------------5-|
|--------------------7-------------|----------------7--------7-5-7---|

|----------------------------------|---------------------------------|
|----------------------------------|----------------/5-------7-------|
|--7-------------------------------|--7------------------------------|
|--------------------7-------------|---------------------------------|

|----------------------------------|---------------------------------|
|----------------------------------|---------------------------------|
|--5-------------------------------|--5------------------------------|
|------------------5---------------|----------------5----------------|

|----------------------------------|---------------------------------|
|----------------------------------|---------------------------------|
|--5-------------------------------|--5------------------------------|
|------------------5---------------|--------------3--5-------7-------|

Because I'm still in love with you..
|----------------------------------|---------------------------------|
|----------------------------------|---------------------------------|
|--7-------------------------------|--7----------------7-------------|
|--------------------7-------------|----------------7--------7--5--3-|

|----------------------------------|---------------------------------|
|----------------------------------|---------------------------------|
|----------------------------------|----------------5--------4-------|
|--5-------5--5--5------5--5---5---|--5------5-----------------------|

|----------------------------------|---------------------------------|
|----------------------------------|---------------------------------|
|--7-------------------------------|--7-----------------7------------|
|--------------------7-------------|----------------7---------3------|

|----------------------------------|---------------------------------|
|----------------------------------|---------------------------------|
|----------------------------------|----------------------------4----|
|--5------5----5---5---5---5---5---|--5-------7-------7--------------|

|----------------------------------|---------------------------------|
|----------------------------------|---------------------------------|
|--5-------------------------------|--5------------------------------|
|------------------5---------------|----------------5----------------|

|----------------------------------|---------------------------------|
|----------------------------------|---------------------------------|
|--5-------------------------------|--5---------------------/7-------|
|------------------5---------------|----------------5-------------7--|

|----------------------------------|---------------------------------|
|----------------------------------|---------------------------------|
|--5-------------------------------|--5------------------------------|
|------------------5---------------|----------------5----------------|

|----------------------------------|---------------------------------|
|----------------------------------|---------------------------------|
|--5-------------------------------|--5------------------------------|
|------------------5---------------|----------------5-------3--------|

When we were strangers..
|----------------------------------|---------------------------------|
|----------------------------------|---------------------------------|
|--7-------------------------------|--7------------------------------|
|--------------------7--7--7-------|-----------------7-------7--7----|

|----------------------------------|---------------------------------|
|----------------------------------|---------------------------------|
|--7-------------------------------|--7-------------7----------------|
|--------------------7--7--7-------|-------------------7------5------|

|----------------------------------|---------------------------------|
|----------------------------------|----------------/7-------/7------|
|--5-------------------------------|--5------------------------------|
|------------------5---------------|---------------------------------|

|----------------------------------|---------------------------------|
|----------------------------------|---------------------------------|
|--5-------------------------------|--5----------------------------5-|
|------------------5---------------|----------------5--------7-5-7---|

When we were lovers..
|----------------------------------|---------------------------------|
|----------------------------------|---------------------------------|
|--7-------------------------------|--7------------------------------|
|--------------------7--7--7-------|----------------7-------7--------|

|----------------------------------|---------------------------------|
|----------------------------------|---------------------------------|
|--7-------------------------------|--7------------------------------|
|--------------------7--7--7-------|----------------5-------7--------|

|----------------------------------|---------------------------------|
|----------------------------------|---------------------------------|
|--5-------------------------------|--5------------------------------|
|------------------5---------------|----------------5--------5-3-5-7-|

|----------------------------------|---------------------------------|
|----------------------------------|---------------------------------|
|--5-------------------------------|--5------------------------------|
|------------------5---------------|----------------5----------------|

But now it's getting late..
|----------------------------------|---------------------------------|
|----------------------------------|---------------------------------|
|--7-------------------------------|--7------------------------------|
|--------------------7-------------|----------------7----------------|

|----------------------------------|---------------------------------|
|----------------------------------|---------------------------------|
|--7-------------------7-----------|-----7-----------7---------------|
|------------------7---------------|-7-------------------7-----5-----|

|----------------------------------|---------------------------------|
|----------------------------------|-----------------7-/-------------|
|--5-------------------------------|--5------------------------------|
|------------------5---------------|---------------------------------|

|----------------------------------|---------------------------------|
|-/12------------------------------|---------------------------------|
|-----------------12\--------------|--5------------------------------|
|----------------------------------|----------------5---------5-5-5--|

I want to celebrate..
|----------------------------------|---------------------------------|
|----------------------------------|---------------------------------|
|--7-------------------------------|--7------------------------------|
|--------------------7-------------|----------------7----------------|

|----------------------------------|---------------------------------|
|----------------------------------|--------------------9------------|
|--7-------------------------------|--7-------------7----------------|
|--------------------7-----------7-|---------------------------------|


|----------------------------------|---------------------------------|
|----------------------------------|----------------7----------------|
|--5-------------------------------|--5------------------------------|
|------------------5---------------|---------------------------------|

|----------------------------------|---------------------------------|
|----------------------------------|---------------------------------|
|--5-------------------------------|--5------------------------------|
|------------------5---------------|----------------5---3-------3----|

Because I'm still in love with you..
|----------------------------------|---------------------------------|
|----------------------------------|---------------------------------|
|--7-------------------------------|--7----------------7-------------|
|--------------------7-------------|----------------7---------3------|

|----------------------------------|---------------------------------|
|----------------------------------|---------------------------------|
|----------------------------------|----------------5----------------|
|--5------5--5--5-------5--5---5---|--5------7-------------7---------|

|----------------------------------|---------------------------------|
|----------------------------------|---------------------------------|
|--7-------------------------------|--7------------------------------|
|--------------------7-------------|----------------7-------7--------|

|----------------------------------|---------------------------------|
|----------------------------------|---------------------------------|
|----------------------------------|----------------------------4----|
|--5------5----5---5---5---5---5---|--5-------5-------7--------------|

|----------------------------------|---------------------------------|
|----------------------------------|---------------------------------|
|--5-------------------------------|--5------------------------------|
|------------------5---------------|----------------5----------------|

|----------------------------------|---------------------------------|
|----------------------------------|---------------------------------|
|--5-------------------------------|--5------------------------------|
|------------------5---------------|----------------5----------------|

|----------------------------------|---------------------------------|
|----------------------------------|---------------------------------|
|--5-------------------------------|--5------------------------------|
|------------------5---------------|----------------5----------------|

|----------------------------------|---------------------------------|
|----------------------------------|---------------------------------|
|--5-------------------------------|--5------------------------------|
|------------------5---------------|----------------5----------------|

Harmonica solo
|----------------------------------|---------------------------------|
|----------------------------------|---------------------------------|
|--7-------------------------------|--7------------------------------|
|--------------------7-------------|----------------7----------------|

|----------------------------------|---------------------------------|
|----------------------------------|----------------/7---------------|
|--7-------------------------------|-/7------------------------------|
|--------------------7-------------|---------------------------------|

|----------------------------------|---------------------------------|
|----------------------------------|---------------------------------|
|--5-------------------------------|--5------------------------------|
|------------------5---------------|----------------5--------5\------|

|----------------------------------|---------------------------------|
|----------------------------------|---------------------------------|
|--5-------------------------------|--5------------------------------|
|--5---------------5---------------|----------------5----------------|

|----------------------------------|---------------------------------|
|----------------------------------|---------------------------------|
|--7-------------------------------|--7------------------------------|
|--------------------7-------------|----------------7----------------|

|----------------------------------|---------------------------------|
|----------------------------------|----------------5-------7--------|
|--7-------------------------------|--7------------------------------|
|--------------------7-------------|---------------------------------|

|----------------------------------|---------------------------------|
|----------------------------------|---------------------------------|
|--5-------------------------------|--5------------------------------|
|------------------5---------------|----------------5----------------|

|----------------------------------|---------------------------------|
|----------------------------------|---------------------------------|
|--5-------------------------------|--5------------------------------|
|------------------5---------------|----------------5--------5-3-5-5-|

Because I'm still in love with you..
|----------------------------------|---------------------------------|
|----------------------------------|---------------------------------|
|--7-------------------------------|--7----------------7-------------|
|--------------------7-------------|----------------7---------3------|

|----------------------------------|---------------------------------|
|----------------------------------|---------------------------------|
|----------------------------------|----------------5--------4-------|
|--5------5--5--5-------5--5---5---|--5------5-----------------------|

|----------------------------------|---------------------------------|
|----------------------------------|---------------------------------|
|--7-------------------------------|--7----------------7-------------|
|--------------------7-------------|----------------7-----------5--3-|

|----------------------------------|---------------------------------|
|----------------------------------|---------------------------------|
|----------------------------------|----------------------------4----|
|--5------5----5---5---5---5---5---|--5-------5-------7--------------|

Outro
|----------------------------------|---------------------------------|
|----------------------------------|---------------------------------|
|--5-------------------------------|--5------------------------------|
|------------------5---------------|----------------5----------------|

|----------------------------------|---------------------------------|
|----------------------------------|---------------------------------|
|--5-------------------------------|--5----------------------5-------|
|------------------5---------------|----------------5----------5-3-5-|

|----------------------------------|---------------------------------|
|----------------------------------|---------------------------------|
|--5-------------------------------|--5------------------------------|
|------------------5---------------|----------------5----------------|

|----------------------------------|---------------------------------|
|----------------------------------|-----------------7---------------|
|--5-------------------------------|--5------------------------------|
|------------------5---------------|---------------------------------|

|----------------------------------|
|----------------------------------|
|--5-------------------------------|
|----------------------------------|
            

comments powered by Disqus
↑ Back to top | Neil Young Bass for Harvest Moon. Lyrics for acoustic guitar and electric guitar. Tablatures and chords are parodies/interpretations of the original songs. You may use it for private study, scholarship, research or language learning purposes only