>
 >
Campaigner

Campaigner Guitar Tabs

Neil Young - Campaigner chords, tabs, tablatures, lyrics

Guitar lessons | Add/correct | Request | Top 50 tabs Artists:  A B C D E F G H I J K L M N O P Q R S T U V W X Y Z 0-9

Campaigner Guitar Tabs – Neil Young

CD, Sheet music, Poster

Do you like Campaigner? Share with your friends now
ChordsTabs
THE CAMPAIGNER


I made some corrections to the original version - TBezza

Tuning - Standard, Capo at 3rd fret

Chords
   D  D/G Bm   G F#m  Bm/A  A   Dsus2 Dsus4
|--2---2---2---3---2---2----0--|-0----3---|
|--3---3---3---0---2---3----2--|-3----3---|
|--2---2---4---0---2---4----2--|-2----2---|
|--0-------4---0---4---4----2--|-0----0---|
|----------2---2---4---0----0--|----------|
|------3-------3---2-----------|----------|

Intro - Hammer on and pull off on the e string of the D chord, changing in 
between D, Dsus2 and Dsus4. Listen to song for perfect timings.

D			D/G
i am a lonely visitor, came to late to cause a stir
	  D		    Bm		      G
though i campaigned all my life towards that goal
   G		     F#m		Bm
i hardly slept the night you wept, our secrets safe
     Bm/A
and still well-kept
	A			  Bm
where even richard nixon has got soul
G			    A
even richard nixon has got soul...


Bass Riff
 
chords played a few times each, listen to song for timings.

           Bm     G	      Bm      E
|----------2------3-----------2-------0-|
|----------3------0-----------3-------0-|
|----------4------0-----------4-------1-|
|------0---4------0-------0---4-------2-|
|--0h2---2-2--0---2---0h2---2-2--0----2-|
|---------------3-3----------------0--0-|





Comments


Popular Neil Young tabs & chords
Falling Off The Face Of The Earth 1 Chords
Hitchhiker Chords
I Am A Child Chords
Its A Dream 1 Chords
Mideast Vacation Chords
Star Of Bethlehem Chords
Stayin Power Chords
Words Chords
Look Out For My Love Tabs
Danger Bird Ukulele


Song lyrics



↑ Back to top | Tablatures and chords are parodies/interpretations of the original songs. You may use it for private study, scholarship, research or language learning purposes only
© 2014 AZChords.com Contact us | Privacy policy | DMCA | Add/correct tabs | Request tabs | Top 50 tabs