» » »

Neil Sedaka, Sealed With A Kiss Tabs (ver.1)

Artists:  A B C D E F G H I J K L M N O P Q R S T U V W X Y Z # 

Sealed With A Kiss Tabs (ver.1)

Neil Sedaka Tabs
Rating:
5/5 (1 vote)
Sealed With A Kiss lessons Tabs too difficult? Try these video lessons and learn fast
                                        Neil Sedaka - Sealed With A Kiss
                               ( Duration 2:40 )

             ¡¡¡ Play these chords with capo on the first fret,
          But the harmonics’ solos & riffs aren’t relatives to capo!!!.

                          A   Am   B7   Em    D    F#
                     e|---0----0----2----0----2----2---|
                     B|---3----1----0----0----3----2---|
                     G|---3----2----2----0----2----3---|
                     D|---3----2----1----2----0----4---|
                     A|---0----0----2----2----0----4---|
                     E|---0----0----0----0----0----2---|


                      Intro (Chords & harmonic’s solo) :

                                         D     Em  D Em
                   e|--13-11-9-8-9-----------------------|
                   B|—---------------6-8-9~8--4-6--4-6---|
                   G|------------------------------------|
                   D|------------------------------------|
                   A|------------------------------------|
                   E|------------------------------------|


                       Am            Em      Am         D           Em
Though we gotta say goodbye for the summer, darling, I promise you this:

      E               Am         Em            Am               Em
I'll send you all my love every day in a letter, sealed with a kiss.

                       Am           Em           Am         D       Em
Guess it's gonna be a cold, lonely summer, but, I'll fill the emptiness.

      E                Am         Em             Am               Em
I'll send you all my dreams every day in a letter, sealed with a kiss.

      A                Em           A                   Em
I'll see you in the sunlight, I'll hear your voice everywhere,

      A              Em             F#                     B7
I'll run to tenderly hold you, but Darling, you won't be there.

                     Am            Em      Am          D          Em
I don't wanna say goodbye for the summer, knowing the love we'll miss.

      E             Am       D         Em    Am     D              Em   D, Em.
Oh, let us make a pledge to meet in September, and seal it with a kiss

    Harmonic’s solo:

                      Am        Em     Am     D   Em              E
   e|------------------------------|----9-9-6-11-6-8--8-13-11-9-8-9--|
   B|--6-6-9-9--13-13-11--9-8-9-6--|--6------------------------------|
   G|------------------------------|---------------------------------|
   D|------------------------------|---------------------------------|
   A|------------------------------|---------------------------------|
   E|------------------------------|---------------------------------|

              Am         Em    Am     Em
   e|--9h11-9-8--8-6-8------|------------|
   B|------------------9-6--|--11-9-8-6--|
   G|-----------------------|------------|
   D|-----------------------|------------|
   A|-----------------------|------------|
   E|-----------------------|------------|


            ( Now put the capo on the 2nd fret, for the rest )

            Em         Am            Em          Am           D     Em
Guess it's gonna be a cold, lonely summer, but, I'll fill the emptiness.

      E               Am         Em            Am               Em     Am
I'll send you all my love every day in a letter, sealed with a kiss.
                                                                 (Riff 1)
               Em Am                E
sealed with a kiss, sealed with a kiss…
              (Riff 1)           (Riff 2)


                   Riff 1                      Riff 2
               e|-------9-7--|      e|---------9--|-----------|
               B|—-7-10------|      B|—-11-9-7----|-----------|
               G|------------|      G|------------|--6-6-6----|
               D|------------|      D|------------|-----------|
               A|------------|      A|------------|-----------|
               E|------------|      E|------------|--------2--|

     Quiero dedicar este tab a Angelina Lucatero... Y si algún día lees esto: "Quiero
sepas que te deseo lo mejor, y no hay momento en el que no le pida a Dios que seas felíz,
que sólo me dejára verte para saber que estas bien. No importa que jamás te vuelva a 
en mis brazos otra vez pero necesito saber que eres feliz y, nunca pensé que llegaría a
a tan hermosa mujer como tu. Con todo mi cariño y mi recuerdo que tengo hacia ti, y 
te olvidaré"   Adrián.
            

comments powered by Disqus
↑ Back to top | Neil Sedaka Tabs for Sealed With A Kiss. Lyrics for acoustic guitar and electric guitar. Tablatures and chords are parodies/interpretations of the original songs. You may use it for private study, scholarship, research or language learning purposes only