>
 >
Oh Carok

Oh Carok Bass Tabs

Neil Sedaka - Oh Carok chords, tabs, tablatures, lyrics

Guitar lessons | Add/correct | Request | Top 50 tabs Artists:  A B C D E F G H I J K L M N O P Q R S T U V W X Y Z 0-9

Oh Carok Bass Tabs – Neil Sedaka

CD, Sheet music, Poster

Do you like Oh Carok? Share with your friends now
Bass Tabs
     Q    E  Q.     Q       Q    E  Q.     Q       Q    E  Q.     Q     
G||----------------------|----------------------|----------------------|
D||----------3------3----|----------3------3----|--5----x--------------|
A||--1----x--------------|--1----x--------------|----------5------5----|
E||----------------------|----------------------|----------------------|


  Q    E  Q.     Q       Q    E  Q.     Q       Q    E  Q.     Q     
----------------------|----------------------|----------------------|
--5----x--------------|----------5------5----|----------5------5----|
----------5------5----|--3----x--------------|--3----x--------------|
----------------------|----------------------|----------------------|


  Q    E  Q.     Q       E  E  E  E  E  E  E  E     Q    E  Q.     Q     
----------------------|--------------------------|----------------------|
----------------------|--3--3--1--1--0--0--------|----------3------3----|
----------3------3----|--------------------3--3--|--1----x--------------|
--1----x--------------|--------------------------|----------------------|


  Q    E  Q.     Q       Q    E  Q.     Q       Q    E  Q.     Q     
----------------------|----------------------|----------------------|
----------3------3----|--5----x--------------|--5----x--------------|
--1----x--------------|----------5------5----|----------5------5----|
----------------------|----------------------|----------------------|


  Q    E  Q.     Q       Q    E  Q.     Q       Q    E  Q.     Q     
----------------------|----------------------|----------------------|
----------5------5----|----------5------5----|----------------------|
--3----x--------------|--3----x--------------|----------3------3----|
----------------------|----------------------|--1----x--------------|


  E  E  E  E  E  E  E  E     Q    E  Q.     Q       Q    E  Q.     Q     
--------------------------|----------------------|----------------------|
--3--3--1--1--0--0--------|----------3------3----|----------3------3----|
--------------------3--3--|--1----x--------------|--1----x--------------|
--------------------------|----------------------|----------------------|


  Q    E  Q.     Q       Q    E  Q.     Q       Q    E  Q.     Q     
----------------------|----------------------|----------------------|
--5----x--------------|--5----x--------------|----------5------5----|
----------5------5----|----------5------5----|--3----x--------------|
----------------------|----------------------|----------------------|


  Q    E  Q.     Q       Q    Q    Q    Q       E  E  E  E  E  E  E  E   
----------------------|----------------------|--------------------------|
----------------------|----------------------|--3--3--1--1--0--0--------|
----------3------3----|--1-------------------|--------------------3--3--|
--1----x--------------|----------------------|--------------------------|


  Q    E  Q.     Q       Q    E  Q.     Q       Q    E  Q.     Q     
----------------------|----------------------|----------------------|
----------3------3----|----------3------3----|--5----x--------------|
--1----x--------------|--1----x--------------|----------5------5----|
----------------------|----------------------|----------------------|


  Q    E  Q.     Q       Q    E  Q.     Q       Q    E  Q.     Q     
----------------------|----------------------|----------------------|
--5----x--------------|----------5------5----|----------5------5----|
----------5------5----|--3----x--------------|--3----x--------------|
----------------------|----------------------|----------------------|


  Q    E  Q.     Q       E  E  E  E  E  E  E  E     Q    E  Q.     Q     
----------------------|--------------------------|----------------------|
----------------------|--3--3--1--1--0--0--------|----------3------3----|
----------3------3----|--------------------3--3--|--1----x--------------|
--1----x--------------|--------------------------|----------------------|


  Q    E  Q.     Q       Q    E  Q.     Q       Q    E  Q.     Q     
----------------------|----------------------|----------------------|
----------3------3----|--5----x--------------|--5----x--------------|
--1----x--------------|----------5------5----|----------5------5----|
----------------------|----------------------|----------------------|


  Q    E  Q.     Q       Q    E  Q.     Q       Q    E  Q.     Q     
----------------------|----------------------|----------------------|
----------5------5----|----------------------|----------3------3----|
--3----x--------------|----------3------3----|--1----x--------------|
----------------------|--1----x--------------|----------------------|


  E  E  E  E  E  E  E  E     Q    E  Q.     Q       Q    E  Q.     Q     
--------------------------|----------------------|----------------------|
--3--3--1--1--0--0--------|----------3------3----|----------3------3----|
--------------------3--3--|--1----x--------------|--1----x--------------|
--------------------------|----------------------|----------------------|


  Q    E  Q.     Q       Q    E  Q.     Q       Q    E  Q.     Q     
----------------------|----------------------|----------------------|
--5----x--------------|--5----x--------------|----------5------5----|
----------5------5----|----------5------5----|--3----x--------------|
----------------------|----------------------|----------------------|


  Q    E  Q.     Q       Q    E  Q.     Q       E  E  E  E  E  E  E  E   
----------------------|----------------------|--------------------------|
----------5------5----|----------------------|--3--3--1--1--0--0--------|
--3----x--------------|----------3------3----|--------------------3--3--|
----------------------|--1----x--------------|--------------------------|


  Q    E  Q.     Q       Q    E  Q.     Q       Q    E  Q.     Q     
----------------------|----------------------|----------------------|
----------3------3----|----------3------3----|--5----x--------------|
--1----x--------------|--1----x--------------|----------5------5----|
----------------------|----------------------|----------------------|


  Q    E  Q.     Q       Q    E  Q.     Q       Q    E  Q.     Q     
----------------------|----------------------|----------------------|
--5----x--------------|----------5------5----|----------------------|
----------5------5----|--3----x--------------|----------3------3----|
----------------------|----------------------|--1----x--------------|


  Q    Q    Q    Q       E  E  E  E  E  E  E  E     Q    E  Q.     Q     
----------------------|--------------------------|----------------------|
----------------------|--3--3--1--1--0--0--------|----------3------3----|
--1-------------------|--------------------3--3--|--1----x--------------|
----------------------|--------------------------|----------------------|


  Q    E  Q.     Q       Q    E  Q.     Q       Q    E  Q.     Q     
----------------------|----------------------|----------------------|
----------3------3----|--5----x--------------|--5----x--------------|
--1----x--------------|----------5------5----|----------5------5----|
----------------------|----------------------|----------------------|


  Q    E  Q.     Q       Q    E  Q.     Q       Q    E  Q.     Q     
----------------------|----------------------|----------------------|
----------5------5----|----------5------5----|----------------------|
--3----x--------------|--3----x--------------|----------3------3----|
----------------------|----------------------|--1----x--------------|


  E  E  E  E  E  E  E  E     Q    E  Q.     Q       Q    E  Q.     Q     
--------------------------|----------------------|----------------------|
--3--3--1--1--0--0--------|----------3------3----|----------3------3----|
--------------------3--3--|--1----x--------------|--1----x--------------|
--------------------------|----------------------|----------------------|


  Q    E  Q.     Q       Q    E  Q.     Q       Q    E  Q.     Q     
----------------------|----------------------|----------------------|
--5----x--------------|--5----x--------------|----------5------5----|
----------5------5----|----------5------5----|--3----x--------------|
----------------------|----------------------|----------------------|


  Q    E  Q.     Q       Q    E  Q.     Q       Q    E  Q.     Q     
----------------------|----------------------|----------------------|
----------------------|----------3------3----|----------4------4----|
----------3------3----|--1----x--------------|--2----x--------------|
--1----x--------------|----------------------|----------------------|


  Q    E  Q.     Q       Q    E  E  H          
----------------------|----------------------||
----------3------3----|--x-------------------||
--1----x--------------|-------1--1--1--------||
----------------------|----------------------||




Duration Legend
---------------
W - whole
H - half
Q - quarter
E - 8th
S - 16th
T - 32nd
X - 64th
. - note dotted
|-n-|  - n-tuplets


Tablature Legend
----------------
L - tied note
x - dead note
g - grace note
(n) - ghost note
> - accentuded note
NH - natural harmonic
AH - artificial harmonic
TH - tapped harmonic
SH - semi harmonic
PH - pitch harmonic
h - hammer on
p - pull off
b - bend
br - bendRelease
pb - preBend
pbr - preBendRelease
brb - bendReleaseBend
\n/ - tremolo bar dip
\n - tremolo bar dive
-/n - tremolo bar Release up
/n\ - tremolo bar inverted dip
/n - tremolo bar return
-\n - tremolo bar Release down
S - shift slide
s - legato slide
/ -  slide into from below or out of upwards
\ -  slide into from above or out of downwards
~ - vibrato
W - wide vibrato
tr - trill
TP - tremolo picking
T - tapping
S - slap
P - pop
< - fade in
^ - brush up
v - brush down





Comments


Popular Neil Sedaka tabs & chords
Breaking Up Is Hard To Do Chords
Breaking Up Is Hard To Do 1 Chords
Happy Birthday Sweet Sixteen 1 Chords
Laughter In The Rain Chords
Stairway To Heaven Chords
Sweet Little You Chords
The Hungry Years 1 Chords
You Mean Everything To Me Chords
Sealed With A Kiss Tabs
The Hungry Years Ukulele


Song lyrics



↑ Back to top | Tablatures and chords are parodies/interpretations of the original songs. You may use it for private study, scholarship, research or language learning purposes only
© 2014 AZChords.com Contact us | Privacy policy | DMCA | Add/correct tabs | Request tabs | Top 50 tabs