» » »

Stand Up Tabs (ver.1)

Artists:  A B C D E F G H I J K L M N O P Q R S T U V W X Y Z # 

Stand Up Tabs (ver.1)

Neils Children
Rating:
0/5 (0 votes)

Hard to play? Try these video lessons and learn fast.
                STAND UP 

INTRO/VERSE: 
E|-----------------------------------------| 
B|-----------------------------------------| 
G|--8-8-888-1111111111-8-8-888-8-8-888-----| 
D|--9-9-999-1212121212-9-9-999-9-9-999-----| 
A|--9-9-999-1212121212-9-9-999-9-9-999-----| 
E|--7-7-777-1010101010-7-7-777-7-7-777-----| 

CHORUS: 
E|-------------------------------| 
B|-------------------------------| 
G|--77777777-88888888------------| dont play the second 
D|--88888888-99999999------------| chord the last time. 
A|--88888888-99999999------------| 
E|--66666666-77777777------------| 

VERSE 
CHORUS 

While singing stand tall 
John strums the B-chord a few times listen to rhythm:
E|----------------------| 
B|----------------------| 
G|--88888888------------| 
D|--99999999------------| 
A|--99999999------------| 
E|--77777777------------| 

SOLO: 
E|---9-listen to rhythm-----9-10-9-10-9-----| 
B|--10-and strum the chord.-------------10--| 
G|--11--------------------------------------| 
D|--11--------------------------------------| 
A|------------------------------------------| 
E|------------------------------------------| 

Then, 

E|---------------9-9-9-9------------| 
B|--------------10101010------------| 
G|-101010101010-11111111------------| 
D|-111111111111-11111111------------| few times 
A|-111111111111--9-9-9-9------------| 
E|--9-9-9-9-9-9---------------------| 

The synth plays: 
E|--5---5---5---5---------------| 
B|------------------------------| 
G|----5---5---5---5-4-----------| 
D|------------------------------| 
A|------------------------------| 
E|------------------------------| 

VERSE 
CHORUS 


x
            
Hard to play? Try these video lessons and learn fast. | Correct




comments powered by Disqus
↑ Back to top | Tablatures and chords are parodies/interpretations of the original songs. You may use it for private study, scholarship, research or language learning purposes only