>
 >
Something You Said

Something You Said Bass Tabs

Neils Children - Something You Said chords, tabs, tablatures, lyrics

Guitar lessons | Add/correct | Request | Top 50 tabs Artists:  A B C D E F G H I J K L M N O P Q R S T U V W X Y Z 0-9

Something You Said Bass Tabs – Neils Children

CD, Sheet music, Poster

Do you like Something You Said? Share with your friends now
Bass Tabs
right

Intro/Verse;

G-----------------------------------------------------------------------
D-----------------------------------------------------10-10-------------
A-----7-7-6-6-7--------7-7-6-6-7-0-----10-10----10-10------10-10-9-9-10-
E-5-5------------5-5-5-------------8-8------8-8-------------------------


Repeat for however neccesary

Chorus;
G---------------------------------------------------------------------
D-------------------------------------------------9-9-9-9-9-9-9-9-9-9-
A---------5-5-5-5-4-4-4-4-7-7-7-7-6-6-6-6-6-6-6-6---------------------
E-7-7-7-7-------------------------------------------------------------


Bridge;
For the bridge just improvise over A and C (or E-5 and A-3)


x





Comments


Popular Neils Children tabs & chords
Another Day Bass Tabs
In The Past Chords
Stand Up Chords
Stupid Band Chords
Getting Evil In The Playground Tabs
How Does It Feel Now Youre On Your Own Tabs
Im Ill Tabs
Stand Up Tabs
I Hate Models Ukulele
In The Past Ukulele


Song lyrics



↑ Back to top | Tablatures and chords are parodies/interpretations of the original songs. You may use it for private study, scholarship, research or language learning purposes only
© 2014 AZChords.com Contact us | Privacy policy | DMCA | Add/correct tabs | Request tabs | Top 50 tabs