» » »

Another Day Bass tabs (ver.1)

Artists:  A B C D E F G H I J K L M N O P Q R S T U V W X Y Z # 

Another Day Bass tabs (ver.1)

Neils Children
Rating:
0/5 (0 votes)

Tabs too difficult? Try these video lessons and learn fast.
                -------------------------------------------------------------------------------
-------------------------------------------------------------------------------


Tuning: standard

Intro;
G|---------------------------------|
D|-----------------8---7-----------|
A|---------6---5-----------6---5---|
E|-6---5---------------------------|

Verse;
G|--------------------------------|
D|--------------------------------| x3
A|-7-8-5-5-5-5-5-5-5-5-5-5-5-5-5--|
E|--------------------------------|

G|--------------------------------|
D|--------------------------------|
A|--------------------------------|
E|-7-8-5-5-5-5-5-5-5-5-5-5-5-5-5--|

Chorus;
G|-----------------------------|
D|-----------------------------| x3
A|-8--8-8--------5-------------|
E|--------5--5-5----8--5-5-5-5-|

G|-------------------------------|
D|-------------------------------|
A|-8-8-8-8-8-8-8-----------------| 
E|---------------7-7-7-7-7-7-7-7-|

Bridge;
G|------------------------------------------------------------|
D|-------------------------8[x8]-7[x4]-5[x4]------------------|
A|-------------6[x8]-5[x8]-------------------6[x8]-5[x4]------|
E|-6[x8]-5[x8]-------------------------------------------8[x4]|

Finish;
G|-------|
D|-------|
A|-7-8-5-|
E|-------|

===============================================================================
            
Tabs too difficult? Try these video lessons and learn fast.




comments powered by Disqus
↑ Back to top | Tablatures and chords are parodies/interpretations of the original songs. You may use it for private study, scholarship, research or language learning purposes only