» » »

Negrita, Mama Mae Tabs (ver.1)

Artists:  A B C D E F G H I J K L M N O P Q R S T U V W X Y Z # 

Mama Mae Tabs (ver.1)

Negrita Tabs
 Rating:
4/5 (4 votes)
Mama Mae lessons Tabs too difficult? Try these video lessons and learn fast
                Intro
Eb --------------------------------------------------------------------------|
Bb---------------------------------------------------------------------------|
Gb-----------------------------------2--------5-7b(9)--5-7b(9)-7b(9)-5-------|
Db----5-5----5h7--5-------5-------2---7-7----------7--------------------7----|
Ab---------7----------7-------7-3--0-----------------------------------------|
Eb---------------------------------------------------------------------------|

RIFF 1
Guitar 1
Eb---------------------------------------------------------------------------|
Bb---------------------------------------------------------------------------|
Gb----------2-----2--x-x-2-------0--2-2-----2--------------------------------|
Db----------2-----2--x-x-2----------2-2-----2--------------------------------|
Ab----------0-----0--x-x-0--3/5----0-0-----0---------------------------------|
Eb------3b----3b--------------------------3b---------------------------------|
x 4

Guitar 2
Eb---------------------------------------------------------------------------|
Bb----10-10-10--x-x--x10--10---5-5-5-7/8/7p5---------------------------------|
Gb----9---9--9---x-x--x-9---9----5-5-5-7/8/7p5--7----------------------------|
Db----7---7--7---x-x--x-7---7----5-5-5-7/8/7p5--7----------------------------|
Ab------------------------------------------------------7--------------------|
Eb---------------------------------------------------------------------------|
x4

Verse
Eb------0h0-x-x-0h0-x-0------------------------------------------------------|
Bb------4h5-x-x-4h5-x-5------------------------------------------------------|
Gb---------------------------------------------------------------------------|
Db---------------------------------------------------------------------------|
Ab---------------------------------------------------------------------------|
Eb---------------------------------------------------------------------------|
x8

Eb-----2---------------------------------------------------------------------|
Bb-----3---------1-------3---------------------------------------------------|
Gb-----2------2-------4-------Reapeat Riff 1 x2------------------------------|
Db----------3-------5--------------------------------------------------------|
Ab---------------------------------------------------------------------------|
Eb---------------------------------------------------------------------------|


Pre-chorus
Eb-----------0---------------0----------------0--------------0---------------|
Bb--------1----1----------3---3-----------1----1---------3---3---------------|
Gb-----2---------2-----4--------4------2---------2-----4-------4-------------|
Db---3-------------3/5------------5--3-------------3/5------------5----------|
Ab---------------------------------------------------------------------------|
Eb---------------------------------------------------------------------------|

Chorus
it's the same of intro

Eb----------------------------------------------------------------------------|
Bb----------------------------------------------------------------------------|
Gb--------------------------------------2--------5-7b(9)--5-7b(9)-7b(9)-5-----|
Db----/5-5----5h7--5-------5---------2---7-7----------7--------------------7--|
Ab---------7-----------7--------7--3--0---------------------------------------|
Eb----------------------------------------------------------------------------|

Riff 1 x 4
Verse x 8
Riff 1 x 2
Pre-chorus x 1
Chorus x 2

Improvisation Solo
Riff 1 x 2

Bridge
Eb ---------------------------------------------------------------------------|
Bb----------------------------------------------------------------------------|
Gb---------5----7b(9)-7b(9)-5-----------5-7b(9)---5-7b(9)-7b(9)-5-------------|
Db-----/7-7---7-------------------7--/7-7----------7--------------------------|
Ab----------------------------------------------------------------------------|
Eb----------------------------------------------------------------------------|
Chords
A F D A
Final  A F D C G A
            
Submit corrections

comments powered by Disqus
↑ Back to top | Negrita Tabs for Mama Mae. Lyrics for acoustic guitar and electric guitar. Tablatures and chords are parodies/interpretations of the original songs. You may use it for private study, scholarship, research or language learning purposes only