>
 >
I'm Your Man

I'm Your Man Guitar Tabs

Negrita - I'm Your Man chords, tabs, tablatures, lyrics

Guitar lessons | Add/correct | Request | Top 50 tabs Artists:  A B C D E F G H I J K L M N O P Q R S T U V W X Y Z 0-9

I'm Your Man Guitar Tabs – Negrita

CD, Sheet music, Poster

Do you like I'm Your Man? Share with your friends now
Tabs
Accordatura un semitono sotto

VERSO


 Babe quando passi di qua guarda bene chi  arrivato in citt

E--0--------------------4-----5---------------------------2----|
B--0--------------------4-----5---------------------------2----|
G--1--------------------4-----6---------------------------3----|     1 chitarra
D--2--------------------6-----7---------------------------4----|       acustica
A--2--------------------6-----7---------------------------4----|
E--0--------------------4-----5---------------------------2----|


E--------------------------------------------------------------|
B--------------------------------------------------------------|
G----------------------------/6---------------------------3----|     2 chitarra
D----------------------------/7---------------------------4----|       distorta
A----------------------------/7---------------------------4----|
E----------------------------/5---------------------------2----|

  Babe Im your man

E--0----2------------------0---------------|
B--0----4------------------0---------------|
G--1----4------------------1---------------|
D--2----4------------------2---------------|
A--2----2------------------2---------------|
E--0-----------------------0---------------|


E-------------------------------0------------------------------|
B-------------------------------0------------------------------|
G--1----4------------------1----1------------------------------|
D--2----4------------------2----2------------------------------|
A--2----2------------------2----2------------------------------|
E--0-----------------------0----0------------------------------|


RITORNELLO


E arriveranno     passeranno          Im just         che qualcuno
le estati         gli inverni         a gigolo         mi fermi

E--0-----------------4------------------5-----------------2----|
B--0-----------------4------------------5-----------------2----|
G-1-----------------4------------------6-----------------3----|
D--2-----------------6------------------7-----------------4----|
A--2-----------------6------------------7-----------------4----|
E--0-----------------4------------------5-----------------2----|


E--------------------------------------------------------------|
B--------------------------------------------------------------|
G--1------------------------------------6-----------------3----|
D--2------------------------------------7-----------------4----|
A--2------------------------------------7-----------------4----|
E--0------------------------------------5-----------------2----|


  Babe Im your man

E--0----2------------------0---------------|
B--0----4------------------0---------------|
G--1----4------------------1---------------|
D--2----4------------------2---------------|
A--2----2------------------2---------------|
E--0-----------------------0---------------|


E--------------------------------------------------------------|
B--------------------------------------------------------------|
G--1----4------------------1-----------------------------------|
D--2----4------------------2-----------------------------------|
A--2----2------------------2-----------------------------------|
E--0-----------------------0-----------------------------------|


E-----------------------------------------------12--12--12--12-|
B----------------------------------------12/14-----------------|   qui entra una
G--------------------------------------------------------------|    3 chitarra
D--------------------------------------------------------------|      distorta
A--------------------------------------------------------------|
E-------------------------------------------------------------|


BREAK

Oooooh

E--0-----------------4------------------5-----------------2----|
B--0-----------------4------------------5-----------------2----|
G-1-----------------4------------------6-----------------3----|
D--2-----------------6------------------7-----------------4----|
A--2-----------------6------------------7-----------------4----|
E--0-----------------4------------------5-----------------2----|


E--------------------------------------------------------------|
B--------------------------------------------------------------|
G--1-----------3/4--3--1----------------1-----------------1----|
D--2-----------4/6--4--2----------------2-----------------2----|
A--2-----------4/6--4--2----------------2-----------------2----|
E--0-----------2/4--2--0----------------0-----------------0----|


E-------12--12-------------------------------12--12------------|
B12/14---------1412/14---------------12/14---------14--12----|
G--------------------------------------------------------------|
D--------------------------------------------------------------|
A--------------------------------------------------------------|
E-------------------------------------------------------------|

......

E--0----2------------------0---------------|
B--0----4------------------0---------------|
G--1----4------------------1---------------|
D--2----4------------------2---------------|
A--2----2------------------2---------------|
E--0-----------------------0---------------|

E--------------------------------------------------------------|
B--------------------------------------------------------------|
G--1----4------------------1-----------------------------------|
D--2----4------------------2-----------------------------------|
A--2----2------------------2-----------------------------------|
E--0-----------------------0-----------------------------------|


E--------12--12------------12----------------------------------|
B12/14----------1412/14--------------------------------------|
G--------------------------------------------------------------|
D--------------------------------------------------------------|
A--------------------------------------------------------------|
E-------------------------------------------------------------|

.....

E--0-----------------4------------------5-----------------2----|
B--0-----------------4------------------5-----------------2----|
G-1-----------------4------------------6-----------------3----|
D--2-----------------6------------------7-----------------4----|
A--2-----------------6------------------7-----------------4----|
E--0-----------------4------------------5-----------------2----|


E--------------------------------------------------------------|
B--------------------------------------------------------------|
G--1-----------3/4--3--1----------------1-----------------1----|
D--2-----------4/6--4--2----------------2-----------------2----|
A--2-----------4/6--4--2----------------2-----------------2----|
E--0-----------2/4--2--0----------------0-----------------0----|


E-------12--12-------------------------------12--12--12--------|
B12/14---------1412/14---------------12/14------------14-----|
G--------------------------------------------------------------|
D--------------------------------------------------------------|
A--------------------------------------------------------------|
E-------------------------------------------------------------|


  Im your man

E--0----2------------------0---------------|
B--0----4------------------0---------------|
G--1----4------------------1---------------|
D--2----4------------------2---------------|
A--2----2------------------2---------------|
E--0-----------------------0---------------|


E--------------------------------------------------------------|
B--------------------------------------------------------------|
G--1----4------------------1-----------------------------------|
D--2----4------------------2-----------------------------------|
A--2----2------------------2-----------------------------------|
E--0-----------------------0-----------------------------------|


E--12--12--12--12----------------------------------------------|
B--14--14--14--14----------------------------------------------|
G--------------------------------------------------------------|
D--------------------------------------------------------------|
A--------------------------------------------------------------|
E-------------------------------------------------------------|


VERSO x1
RITORNELLO x 1
BREAK x 2

OUTRO

E--0-----------------4------------------5-----------------2----|
B--0-----------------4------------------5-----------------2----|
G-1-----------------4------------------6-----------------3----|
D--2-----------------6------------------7-----------------4----|
A--2-----------------6------------------7-----------------4----|
E--0-----------------4------------------5-----------------2----|


E--------------------------------------------------------------|
B--------------------------------------------------------------|
G--1-----------3/4--3--1----------------1-----------------1----|
D--2-----------4/6--4--2----------------2-----------------2----|
A--2-----------4/6--4--2----------------2-----------------2----|
E--0-----------2/4--2--0----------------0-----------------0----|


E-------12--12-------------------------------12--12------------|
B12/14---------1412/14---------------12/14---------14--12----|
G--------------------------------------------------------------|
D--------------------------------------------------------------|
A--------------------------------------------------------------|
E-------------------------------------------------------------|

......

E--0----2------------------0-----------0---|
B--0----4------------------0-----------0---|
G--1----4------------------1-----------1---|
D--2----4------------------2-----------2---|
A--2----2------------------2-----------2---|
E--0-----------------------0-----------0---|

E---------------------------------------0----------------------|
B---------------------------------------0----------------------|
G--1----4------------------1------------1----------------------|
D--2----4------------------2------------2----------------------|
A--2----2------------------2------------2----------------------|
E--0-----------------------0------------0----------------------|


E--------12--12------------12-----------12---------------------|
B12/14----------1412/14---------------12---------------------|
G---------------------------------------13---------------------|
D--------------------------------------------------------------|
A--------------------------------------------------------------|
E-------------------------------------------------------------|





Comments


Popular Negrita tabs & chords
Brucier Per Te Bass Tabs
Sex Bass Tabs
Ho Imparato A Sognare 1 Chords
La Tua Canzone Chords
Lasciami Dormire Chords
Rotolando Verso Sud Chords
Transalcolico Chords
Brucer Per Te Tabs
Magnolia Tabs
Il Giorno Delle Verit Ukulele


Song lyrics



↑ Back to top | Tablatures and chords are parodies/interpretations of the original songs. You may use it for private study, scholarship, research or language learning purposes only
© 2014 AZChords.com Contact us | Privacy policy | DMCA | Add/correct tabs | Request tabs | Top 50 tabs