>
 >
Hollywood

Hollywood Guitar Tabs

Negrita - Hollywood chords, tabs, tablatures, lyrics

Guitar lessons | Add/correct | Request | Top 50 tabs Artists:  A B C D E F G H I J K L M N O P Q R S T U V W X Y Z 0-9

Hollywood Guitar Tabs – Negrita

CD, Sheet music, Poster

Do you like Hollywood? Share with your friends now
Tabs
Forse non sarà perfetta al 100%, ma per adesso è l'unica in circolazione. Ci ho
 messo giorni per farla!!

INTRO

1° chitarra


|-----------------------------------------------------------------|
|-11-9-7----7-9-12--12-11-9-7---11-9-11—7-9-12--12-11-9-7---------|
|-----------------------------------------------------------------|
|-----------------------------------------------------------------|
|-----------------------------------------------------------------|
|-----------------------------------------------------------------|

|-----------------------------------------------------|
|-9-7-7-7-9-12--12-11-9-7—-11-9-11-7-9-12-11-9-11/9-7-|
|-----------------------------------------------------|
|-----------------------------------------------------|
|-----------------------------------------------------|
|-----------------------------------------------------|

2° chitarra

|-14~~~-------|
|-------------|
|-------------|
|-------------|
|-------------|
|-------------|

VERSO

1° chitarra

  F#    C#    E     B
|-2-----4-----0-----2------------|
|-2-----6-----0-----4------------|
|-3-----6-----1-----4------------|
|-4-----6-----2-----4------------|
|-4-----4-----2-----2------------|
|-2-----------0------------------|

2° chitarra (entra dopo 2 giri di accordi)
|--------------------------------|
|-11-7-7-7-9-12--12-11-9-7-------|
|--------------------------------|
|--------------------------------|
|--------------------------------|
|--------------------------------|


|-----------------------------------------------------------------|
|-11-9-11-7-9-12--12-11-9-7—9-7—7-7-9-12--12-11-9-7--11-9-11------|
|-----------------------------------------------------------------|
|-----------------------------------------------------------------|
|-----------------------------------------------------------------|
|-----------------------------------------------------------------|

|--------------------------------|
|7-9-12-11-9-11/9-7--------------|
|--------------------------------|
|--------------------------------|
|--------------------------------|
|--------------------------------|
La 1° chitarra continua con gli accordi, la seconda suona questo

|--------------------------------------------------------------------|
|-9~\-9~\-9~\----7-x-9/11~-9-7---9~\-9~\-9~\---7-x-9/11--------------|
|-------------9-----------------------------9------------------------|
|--------------------------------------------------------------------|
|--------------------------------------------------------------------|
|--------------------------------------------------------------------|


RITORNELLO “Qui non è Hollywood”

1° chitarra

|--------------------------------|
|7-9-11-7-9-11—-7-9-11-7-9-11----|
|-------------8--------------11-8|
|--------------------------------|
|--------------------------------|
|--------------------------------|
|--------------------------------|

2° chitarra

   F# E  B  F#
|--2--0--2--2------------------------|
|--2--0--4--2------------------------|
|--3--1--4--3------------------------|
|--4--2--4--4------------------------|
|--4--2--2--4------------------------|
|--2--0-----2------------------------|

VERSO


1° chitarra

|-----------------------------------------------------------------|
|-7-9-11----7-9-12--12-11-9-7---11-9-11—7-9-12--12-11-9-7---------|
|-----------------------------------------------------------------|
|-----------------------------------------------------------------|
|-----------------------------------------------------------------|
|-----------------------------------------------------------------|

|-----------------------------------------------------|
|-9-7-7-7-9-12--12-11-9-7—-11-9-11-7-9-12-11-9-11/9-7-|
|-----------------------------------------------------|
|-----------------------------------------------------|
|-----------------------------------------------------|
|-----------------------------------------------------|

2° chitarra

  F#    C#    E     B
|-2-----4-----0-----2------------|
|-2-----6-----0-----4------------|
|-3-----6-----1-----4------------|
|-4-----6-----2-----4------------|
|-4-----4-----2-----2------------|
|-2-----------0------------------|

PONTE

Attacca prima la 1° chitarra

|-------------------------------------|
|-------------------------------------|
|--3----3b-----7/9-5-7/9-5-7/9-5—-16b-|
|-4-4--4------------------------------|
|5----5-------------------------------|
|-------------------------------------|

e poi la 2° chitarra

  C#       B
|-4--------2--------------|
|-6--------4--------------|
|-6-8volte-4-8volte-------|
|-6--------4--------------|
|-4--------2--------------|
|-4-----------------------|

RITORNELLO “Qui non è Hollywood”

1° chitarra

|--------------------------------|
|7-9-11-7-9-11—-7-9-11-7-9-11----|
|-------------8--------------11-8|
|--------------------------------|
|--------------------------------|
|--------------------------------|
|--------------------------------|

2° chitarra

   F# E  B  F#
|--2--0--2--2---------------------|
|--2--0--4--2---------------------|
|--3--1--4--3---------------------|
|--4--2--4--4---------------------|
|--4--2--2--4---------------------|
|--2--0-----2---------------------|


Solo

|-----------------------------------------------------------------|
|-----------------------------------------------------------------|
|-----------------------------------------------------------------|
|----8/9/8-----8/9/8-----8/9/8-----7/11-9-------------------------|
|9-9-------7-7-------6-6-------5-9--------------------------------|
|-----------------------------------------------------------------|

2° chitarra

|-----------------------------------------------------------------|
|-11/12/11---7/9/7---11/12/11----7-9/14-12-11---------------------|
|-------------------------------7---------------------------------|
|-----------------------------------------------------------------|
|-----------------------------------------------------------------|
|-----------------------------------------------------------------|


Ponte

1° chitarra

  C#       B
|-4--------2--------|
|-6--------4--------|
|-6-8volte-4-8volte-|
|-6--------4--------|
|-4--------2--------|
|-------------------|

2° chitarra

Ponte

|-----------------------------------|
|--6-------6------------------------|
|----6-------6-----16b--------------|
|-6----6--6----6--------------------|
|-----------------------------------|
|-----------------------------------|

OUTRO

1° chitarra

|-----------------------------------------------------------------|
|11-9-11-------12--12-11-9-7--------------------------------------|
|--------11-13----------------------------------------------------|
|-----------------------------------------------------------------|
|-----------------------------------------------------------------|
|-----------------------------------------------------------------|


2° chitarra

dopo che la prima ripete per un pò di volte la sua parte

   F# E  B  F#
|--2--0--2--2---------------------|
|--2--0--4--2---------------------|
|--3--1--4--3---------------------|
|--4--2--4--4---------------------|
|--4--2--2--4---------------------|
|--2--0-----2---------------------|

1° chitarra

|-----------------------------------------------------------------|
|-11/12/11-12b---7/9/7-9b-----------------------------------------|
|-----------------------------------------------------------------|
|-----------------------------------------------------------------|
|-----------------------------------------------------------------|
|-----------------------------------------------------------------|





Comments


Popular Negrita tabs & chords
Brucier Per Te Bass Tabs
Sex Bass Tabs
Ho Imparato A Sognare Chords
Mama Mae Chords
Rotolando Verso Sud Chords
Brucer Per Te Tabs
Magnolia Tabs
Magnolia Intro Tabs
Ho Imparato A Sognare Ukulele
Il Giorno Delle Verit Ukulele


Song lyrics



↑ Back to top | Tablatures and chords are parodies/interpretations of the original songs. You may use it for private study, scholarship, research or language learning purposes only
© 2014 AZChords.com Contact us | Privacy policy | DMCA | Add/correct tabs | Request tabs | Top 50 tabs