>
 >
Greta

Greta Guitar Tabs

Negrita - Greta chords, tabs, tablatures, lyrics

Guitar lessons | Add/correct | Request | Top 50 tabs Artists:  A B C D E F G H I J K L M N O P Q R S T U V W X Y Z 0-9

Greta Guitar Tabs – Negrita

CD, Sheet music, Poster

Do you like Greta? Share with your friends now
Tabs
GRETA


Intro 2° chitarra (la 1° entra nel verso)

|-3-0-0---0------3-0-0---0-----3-0-0---0-----3-0-0---0-----------|
|-----------0--------------0-------------0-------------0---------|
|----------------------------------------------------------------|
|-------2-----2--------2-----2-------2-----2-------2-----2-------|
|----------------------------------------------------------------|
|----------------------------------------------------------------|


|-3-------3------3------3-------3-0-0---0-----3-0-0---0----------|
|---3-3-----3-3----3-3----3--3------------0-------------0--------|
|----------------------------------------------------------------|
|-------------------------------------2-----2-------2-----2------|
|----------------------------------------------------------------|
|----------------------------------------------------------------|


|-3-0-0---0------3-0-0---0---------------------------------------|
|-----------0--------------0-------------------------------------|
|----------------------------------------------------------------|
|-------2-----2--------2-----2-----------------------------------|
|----------------------------------------------------------------|
|----------------------------------------------------------------|

VERSO

1° chitarra


|------------10--12----14----------------------------------------|
|-------12----------------15----------12-------------------------|
|----12----------------------------12----------------------------|
|-14----------------------------14-------------------------------|
|----------------------------------------------------------------|
|----------------------------------------------------------------|
 
2° chitarra

|----------------------------------------------------------------|
|------3---------------------------------------------------------|
|--2/4---2/4---ripete-per-tutto-il-verso-------------------------|
|----------------------------------------------------------------|
|----------------------------------------------------------------|
|----------------------------------------------------------------|





RITORNELLO

1° chitarra

|-----------------------------------3----------------------------|
|------1---------3---------1----------3--------------------------|
|--------2---------0---------2-----------------------------------|
|----2---------2---------2--------2------------------------------|
|--0---------2---------0--------2--------------------------------|
|----------------------------------------------------------------|

2° chitarra

|-0---3------0---3-----------------------------------------------|
|-1---3------1---3------3-----------3-----------3-----------3----|
|-2---0------2---0--2/4---2/4---2/4---2/4---2/4---2/4---2/4—--2/4|
|-2---2------2---2-----------------------------------------------|
|-0---2------0---2-----------------------------------------------|
|-----0----------0-----------------------------------------------|

POST RITORNELLO

1° chitarra

|-10------10------10--12---14----10------------------------------|
|----12------12---------------------12-------12------------------|
|----------------------------------------12----------------------|
|----------------------------------------------------------------|
|----------------------------------------------------------------|
|----------------------------------------------------------------|

2° chitarra 

|-3-------3------3------3-------3-0-0---0-----3-0-0---0----------|
|---3-3-----3-3----3-3----3--3------------0-------------0--------|
|----------------------------------------------------------------|
|-------------------------------------2-----2-------2-----2------|
|----------------------------------------------------------------|
|----------------------------------------------------------------|

|-3-0-0---0------3-0-0---0---------------------------------------|
|-----------0--------------0-------------------------------------|
|----------------------------------------------------------------|
|-------2-----2--------2-----2-----------------------------------|
|----------------------------------------------------------------|
|----------------------------------------------------------------|






VERSO 2

2° chitarra
|----------------------------------------------------------------|
|-----------------------12--------------------------12-----------|
|-12----11-12----11-9---12----12----11-12----11-9---12-----------|
|-14----12-14----12-9---------14----12-14----12-9----------------|
|----------------------------------------------------------------|
|----------------------------------------------------------------|

1° chitarra (sono perlopiù feedback)

|--------------------------------------------10------------------|
|-----------------------------12--------------------12-----------|
|-----------------------12---------------------------------------|
|----------------------------------------------------------------|
|----------------------------------------------------------------|
|----------------------------------------------------------------|

OUTRO

1° e 2° chitarra credo che suonino la stessa parte


|----------------------------------------------------------------|
|----------------------------------------------------------------|
|----------------------------------------------------------------|
|-5-5-5-5-5-5-5-5-3-3-3-2-2-2-2-2-5-5-5-5-5-5-5-5-3-3-3-2-2-2-2-2|
|----------------------------------------------------------------|
|----------------------------------------------------------------|


|----------------------------------------------------------------|
|----------------------------------------------------------------|
|----------------------------------------------------------------|
|-5-5-5-5-5-5-5-5-/10-10-10-10-10-10-10-10-5-5-5-5-5-5-5-5-/9-9-9|
|----------------------------------------------------------------|
|----------------------------------------------------------------|


|----------------------------------------------------------------|
|----------------------------------------------------------------|
|----------------------------------------------------------------|
|-9-9-9-9-9-12-12-12-12-12-12-12-12-10-10-10-9-9-9-9-9-8-8-8-8-8-|
|----------------------------------------------------------------|
|----------------------------------------------------------------|


|----------------------------------------------------------------|
|----------------------------------------------------------------|
|----------------------------------------------------------------|
|-8-8-8-8-8-8-7-7-7-7-7-5-5-5-5-5-5-5-5-/10-10-10-10-10-10-10-10-|
|----------------------------------------------------------------|
|----------------------------------------------------------------|


|----------------------------------------------------------------|
|----------------------------------------------------------------|
|----------------------------------------------------------------|
|-5-5-5-5-5-5-5-5-/12-12-12-12-12-12-12-12-5-5-5-5-5-5-5-5-3-3-3-|
|----------------------------------------------------------------|
|----------------------------------------------------------------|


|----------------------------------------------------------------|
|----------------------------------------------------------------|
|----------------------------------------------------------------|
|-2-2-2-2-2-0-0-0-0-0-0-0-0-0-0-0-0-2-2-3-3-5-5-5-5-5-5-5-5-/10--|
|----------------------------------------------------------------|
|----------------------------------------------------------------|


|----------------------------------------------------------------|
|----------------------------------------------------------------|
|----------------------------------------------------------------|
|-10-10-10-10-10-10-10-5-5-5-5-5-5-5-5-/9-9-9-9-9-9-9-9-12-12-12-|
|----------------------------------------------------------------|
|----------------------------------------------------------------|


|----------------------------------------------------------------|
|----------------------------------------------------------------|
|----------------------------------------------------------------|
|-12-12-12-12-12-10-10-10-9-9-9-9-9-8-8-8-8-8-8-8-8-8-8-8-7-7-7-7|
|----------------------------------------------------------------|
|----------------------------------------------------------------|


|----------------------------------------------------------------|
|----------------------------------------------------------------|
|----------------------------------------------------------------|
|-7-5-5-5-5-5-5-5-5-/12-12-12-12-12-12-12-12-5-5-5-5-5-5-5-5-/12-|
|----------------------------------------------------------------|
|----------------------------------------------------------------|


|----------------------------------------------------------------|
|----------------------------------------------------------------|
|----------------------------------------------------------------|
|-12-12-12-12-12-12-12-------------------------------------------|
|----------------------------------------------------------------|
|----------------------------------------------------------------|





Comments


Popular Negrita tabs & chords
Sex Bass Tabs
Hemingway Chords
Rotolando Verso Sud Chords
Brucer Per Te Tabs
I'm Your Man Tabs
Mama Mae' Tabs
Hemingway Ukulele
Ho Imparato A Sognare Ukulele
Il Giorno Delle Verit Ukulele
Rotolando Verso Sud Ukulele


Song lyrics



↑ Back to top | Tablatures and chords are parodies/interpretations of the original songs. You may use it for private study, scholarship, research or language learning purposes only
© 2014 AZChords.com Contact us | Privacy policy | DMCA | Add/correct tabs | Request tabs | Top 50 tabs