» » »

Nothing Bass tabs (ver.1)

Artists:  A B C D E F G H I J K L M N O P Q R S T U V W X Y Z # 

Nothing Bass tabs (ver.1)

Negative Approach
Rating:
0/5 (0 votes)

Hard to play? Try these video lessons and learn fast.
                X6
G------------------------------------------------------|
D------------------------------------------------------|
A---------------7-7-7----------------------10----------|
E-5-5-5-5-5-5-5-------7-7-7-7-7--8-8-8-8-8----10-10-10-|

X2
G----------------------------------------------|
D----------------------------------------------|
A----------------------------------------------|
E---7-7-7-7-7--5-5-5-5-5--8-8-8-8-8--7-7-7-7-7-|

Note Second Time after the last 7 do 10-10-10-10-10

G------------------------------------------------------|
D------------------------------------------------------| 
A---------------7-7-7----------------------10----------| 
E-5-5-5-5-5-5-5-------7-7-7-7-7--8-8-8-8-8----10-10-10-|

X2
G----------------------------------------------|
D----------------------------------------------|
A----------------------------------------------|
E---7-7-7-7-7--5-5-5-5-5--8-8-8-8-8--7-7-7-7-7-|

Note Second Time after the last 7 do 10-10-10-10-10

G------------------------------------------------------|
D------------------------------------------------------| 
A---------------7-7-7----------------------10----------| 
E-5-5-5-5-5-5-5-------7-7-7-7-7--8-8-8-8-8----10-10-10-|

All the way to the end...

thx to ryan for the help...peace
            
Hard to play? Try these video lessons and learn fast. | Correct




comments powered by Disqus
↑ Back to top | Tablatures and chords are parodies/interpretations of the original songs. You may use it for private study, scholarship, research or language learning purposes only