» » »

Friend Or Foe Tabs (ver.1)

Artists:  A B C D E F G H I J K L M N O P Q R S T U V W X Y Z # 

Friend Or Foe Tabs (ver.1)

Negative Approach
Rating:
0/5 (0 votes)

Hard to play? Try these video lessons and learn fast.
                E|----------------|
B|----------------|
G|----------------|
D|---575----------| Play 7 times
A|-7-353-5-88-555-|
E|-5-----3-66-333-|

E|----------------------------------|
B|----------------------------------|
G|----------------------------------|
D|----------5-54-444----------5-4-7-| Play 2 times
A|-22222222-3-32-222-22222222-3-2-5-|
E|-00000000----------00000000-------|

E|----------------|
B|----------------|
G|----------------|
D|---575----------| Play 4 times
A|-7-353-5-88-555-|
E|-5-----3-66-333-|

E|----------------------------------|
B|----------------------------------|
G|----------------------------------|
D|----------5-54-444----------5-4-7-| Play 2 times
A|-22222222-3-32-222-22222222-3-2-5-|
E|-00000000----------00000000-------|

E|--------------------|
B|--------------------|
G|--------------------|
D|--------------------| Play 4 times
A|-77777777-3333-5555-|
E|-55555555-1111-3333-|

E|------------------|
B|------------------|
G|------------------|
D|---575------------| Play 1 time
A|-7-353-5-88-555-7-|
E|-5-----3-66-333-5-|
            
Hard to play? Try these video lessons and learn fast. | Correct




comments powered by Disqus
↑ Back to top | Tablatures and chords are parodies/interpretations of the original songs. You may use it for private study, scholarship, research or language learning purposes only