» » »

Negative, Still Alive Ukulele Chords (ver.1)

Artists:  A B C D E F G H I J K L M N O P Q R S T U V W X Y Z # 

Still Alive Ukulele Chords (ver.1)

Negative Tabs
 Rating:
4/5 (4 votes)
Still Alive lessons Tabs too difficult? Try these video lessons and learn fast
                Negative

Still Alive

Tuning: All strings half step down (From high to low: Eb, Bb, F#, C#, Ab, Eb)

Intro:
|----------0------1------0---------|---------0------1------0---------|
|--------1---1------1------1---1---|-----------0------0------0---0---|
|------0-------0------0------0---0-|-------0-----0------0------0---0-|
|----2-----------------------------|-----2---------------------------|
|--3-------------------------------|---2-----------------------------|
|----------------------------------|-0-------------------------------|

|--------------------------1-----------|------------------------------------------------|
|-----0-1------1--------------1----1---|--------------------1------0-----0--------------|
|---------2------0------2-------2-----2|-------0--------------0------0-----0------------|
|---2-------2--------------------------|-----0---0-----0--------0------0----------------|
|-0-------------------3----------------|---2---------2---0------------------------------|
|-------------------1------------------|-3----------------------------------------------|


      C
These are those days, when I can get no sleep
 Em
I'm so tired I'd like to fall into sleep
 Am                  G
I fall in my bed, but still I'm awake

                 C
These questions in my mind are so much bigger than life
        Em
When my life is sold I have to leave them behind
          Am                       G
I have to try to forget, that I am still in my bed

F                   G                      Am
In my deepest fears I'm losing you
         F
Even if somebody tried to stop my heart
G
I'm still alive I will never give up

       C                              Em
Just turn off the lights, don't wanna see me die
   F                              Am
I look like I'm dead, but when you look at me
      G
I am still alive

       C                          Em
Just open your eyes, don't wanna see me cry
 F                             Am
I'm right here where you want be to be
             G
Fighting with myself

      C                          
All I need to feel is your breath on my skin
       Em
This endless longing between you and me
       Am                          G
We can't give up now, we're gonna make it somehow

F                      G                   Am
In my sweetest dreams I'm with you
             F
Even if somebody tried to stop my heart
G
I'm still alive I will never give up

       C                              Em
Just turn off the lights, don't wanna see me die
   F                              Am
I look like I'm dead, but when you look at me
      G
I am still alive

       C                          Em
Just open your eyes, don't wanna see me cry
 F                           Am
I'm right here where you want be to be
             G                   
Fighting with myself

Solo:
        C      Em    Am    F    G    
        Am    F       Em   G
        Am    F       Em   G

   C                                              Em
Just turn off the lights, don't wanna see me die
    F                              Am
I look like I'm dead, but when you look at me
      G
I am still alive

                C                                       Em
Won't you open your eyes, don't wanna see me cry
F                      Am                        G
I'm right here where you want me to be, fighting with myself
F                      Am                        G
I'm right here where you want me to be, fighting with myself
F                      Am                        G
I'm right here where you want me to be, fighting with myself, with myself.

 C        Em

F                                       G                       C
Ooh, I look like I'm dead, but when you look at me, I'm still alive
            
Submit corrections

comments powered by Disqus
↑ Back to top | Negative Ukulele for Still Alive. Lyrics for acoustic guitar and electric guitar. Tablatures and chords are parodies/interpretations of the original songs. You may use it for private study, scholarship, research or language learning purposes only