» » »

An Ornament Ukulele Chords (ver.1)

Artists:  A B C D E F G H I J K L M N O P Q R S T U V W X Y Z # 

An Ornament Ukulele Chords (ver.1)

Negative
Rating:
0/5 (0 votes)

Hard to play? Try these video lessons and learn fast.
                An Ornament - Negative
Karma killer

Intro/Verse (main riff)

G-----------------------------------------------------------------------|(5) *last
D-----0----------------0----------------0------------------2----5-------|
A-----------0--2-------------0--2-------------0--2----3-----------------|
E--3-----3----------2-----2----------1-----1----------------------------|

Don't say "I'm sorry" again, it doesn't give you the right... to be someone else.
I would be pleased to love and share but inside I'm looked I can't even cry

C         Em               F            Em
Love only matters, when it comes to the end
C         G                      D
Love only matters makes you rise again

Em                                         Am
I'm just an ornament, and ornament to your face
                         C                  G                      D
Not enough, but it feels right, you keep me alive when you hold me tight


G-----------------------------------------------------------------------|(5) *last
D-----0----------------0----------------0------------------2----5-------|
A-----------0--2-------------0--2-------------0--2----3-----------------|
E--3-----3----------2-----2----------1-----1----------------------------|

Both ends are burning fast would you stand by me when things are getting bad
And the colours here will face would you help me see, real shades of grey

C         Em               F            Em
Love only matters, when it comes to the end
C         G                      D
Love only matters makes me rise again

Em                                         Am
I'm just an ornament, and ornament to your face
                         C                  G                      D
Not enough, but it feels right, you keep me alive when you hold me tight
Em                                        Am
I'm just an ornament, an ornament in your garden
                        C                 G                        D
Not enough but it feels right you keep me alive when you bring the rain...rain...

G  E  G  F# (not sure about this part)

**bar chords from here on

      G              F#        F            C
Read between the lines this is fragile only for you and I
      A                C
All I want is that you love me.. as I am
G                        F#                          F
Don't say "I'm sorry" again, it doesn't give you the right... to be someone
C
else.

Someone else

G F# F C
            
Hard to play? Try these video lessons and learn fast. | Correct




comments powered by Disqus
↑ Back to top | Tablatures and chords are parodies/interpretations of the original songs. You may use it for private study, scholarship, research or language learning purposes only