>
 >
Vreme Je

Vreme Je Guitar Tabs

Negativ - Vreme Je chords, tabs, tablatures, lyrics

Guitar lessons | Add/correct | Request | Top 50 tabs Artists:  A B C D E F G H I J K L M N O P Q R S T U V W X Y Z 0-9

Vreme Je Guitar Tabs – Negativ

CD, Sheet music, Poster

Do you like Vreme Je? Share with your friends now
Tabs

INTRO: 
   Am          Dsus2  C
E-----------5-----5---0-0----------                       -0-
H----5---5--5-----5---1------------     ili mozes samo    -3-
G----5---5--5-----7---0------------     akorde - Dsus2    -2-
D----7---7--7-----7---2------------     se moze svirati   -0-
A----7---7------5-----3-----3p2h3--        i ovako:       ---
E--5-----------5-------------------                       ---


 Am             Dsus2  C
 Daleko odlazim
 Vise ne podnosim
 To sto sam nemocna
 Silom vezana

                                  Em7  (u stvari)
 Am    C     Em7  Am              -0-  (ovo je  )
 Vreme je, smejem se              -0-  (umesto H)
 Vreme me pretice                 -0-
 Ne dam da pobegne                -0-
 Vreme da smejem se               -2-
                                  ---

 Am              Dsus2  C
 Da li da ostanem
 Ili da nestanem
 Nista mi ne treba
 Ja brisem tragove

 Vreme je, smejem se
 Vreme me pretice
 Ne dam da pobegne
 Vreme da smejem se

  
DRUGA GITARA (dodaci):

 Legenda:

  h - hammer on
  p - pull off
  / - slide up
  \ - slide down
  b - bend
  r - release bend
  ~ - vibrato
 ph - harmonics (svinja, sto bi se u narodu reklo :) )
      pravi se tako sto se odmah posle okidanja palcem desne ruke 
      tek dotakne zica


   00:09 (intro)
E----------------------------------5-7-/8-7-8-/10~--8-8-
H-------------------------------5-----------------------
G--7br~~~-p5--------------------------------------------
D-------------5h7-5h7-5h7-------------------------------
A-------------------------------------------------------
E-------------------------------------------------------

E--5------------------------------------
H-----------------------------8-10-10~--
G----7~~---5h7---------5-7-/9-----------
D--------------77----7------------------
A---------------------------------------
E---------------------------------------

  00:21
E-----------------------------------|-5-/7-7-7-/8-8----8-/10-10-10\8-8\----
H-1-1-/3-3-/5-5----5-/6-6-6\5-5\----|--------------------------------------
G-----------------------------------|-5-/7-7-7-/9-9----9-/10-10-10\9-9\----
D--------------------------------X2-|------------------------------------X2
A-----------------------------------|--------------------------------------
E-----------------------------------|--------------------------------------



  00:36                                            ph    ph
E-----------------------------|------------------------------
H-----------------------------|------------------------------
G-----------------------------|------------------------------
D------5-7--7b--7--5--7--5~---|-----5-7--7b--7--5--7~--5-----
A--5h7------------------------|--7-----------------------7---
E-----------------------------|------------------------------
 Daleko odlazim                Vise ne podnosim


  00:43
E---------------------------|----------7br--5-\3-----5-p3~---
H---------------------------|-------5-------------5----------
G---------------------------|-----5--------------------------
D-----5-7--7b--7--5--7--5~--|--7-----------------------------
A--7------------------------|--------------------------------
E---------------------------|--------------------------------
 To sto sam nemocna          Silom vezana


 Za refren ide isto sto i u 00:21, samo se slabo cuje

 Sledeca strofa je veoma slicna prvoj, cak se u krajnjoj nuzdi
 moze i svirati prva... :)





Comments


Popular Negativ tabs & chords
Laz Tabs
Sex Tabs
Svet Tuge Tabs
Ti Me Ne Volis Tabs


Song lyrics



↑ Back to top | Tablatures and chords are parodies/interpretations of the original songs. You may use it for private study, scholarship, research or language learning purposes only
© 2014 AZChords.com Contact us | Privacy policy | DMCA | Add/correct tabs | Request tabs | Top 50 tabs