» » »

Negativ, Svet Tuge Tabs (ver.1)

Artists:  A B C D E F G H I J K L M N O P Q R S T U V W X Y Z # 

Svet Tuge Tabs (ver.1)

Negativ Tabs
Rating:
0/5 (0 votes)
Svet Tuge lessons Tabs too difficult? Try these video lessons and learn fast
                
  Am7
  Nocas je umrla sva moja vera
  Am7
  Do poslednje kapi je upila zemlja
      Dm
  Nocas sam sama na svetu bila
  Am               G
  Duboko u srcu se gasila zelja
  
     Dm           C
  Da zivim sama u svetu tuge
  Hm7-5            G
  Pustinji hladnoj noci duge

  C               Am
  Cak i kad svane sivi su dani
  F
  Uz takav zivot...
  Dm                 C  Fmaj7
  UuuuuuuuuuuUUuUuuu uu uuUuu

  Am7
  Nocas sam oci okrenula nebu
  Am7
  Trazila zvezdu pod koju da stanem
      Dm
  Ali sve su one pale na zemlju
    Am               G
  I dale mi snage da sebi priznam
     Dm           C
  Da zivim sama u svetu tuge
  Dm/H             G
  Pustinji hladnoj noci duge

  distorzija
  C               Am
  Cak i kad svane sivi su dani
  F
  Uz takav zivot i smrt me mami
  Dm              C
  Ja zivim sama u svetu tuge
  Hm7-5            G
  Pustinji hladnoj noci duge
  C               Am
  Cak i kad svane sivi su dani
  F
  Uz takav zivot i smrt me mami
  Dm    C      Fmaj7
  Iiiiiiiii  iiIii
  isklj. distorzija

  Am7
  Nocas su andjeli sklopili krila
  Am7
  Okrenuli glavu na drugu stranu
  Dm

    Am               G
  I dali mi snage da sebi priznam
     Dm           C
  Da zivim sama u svetu tuge
  Hm7-5            G
  Pustinji hladnoj noci duge

  distorzija
  C               Am
  Cak i kad svane sivi su dani
  F
  Uz takav zivot i smrt me mami
  Dm              C
  Ja zivim sama u svetu tuge
  Hm7-5            G
  Pustinji hladnoj noci duge

  solo

  isklj. distorzija

     Dm           C
  Ja zivim sama u svetu tuge
  Hm7-5            G
  Pustinji hladnoj noci duge

  distorzija
  C               Am
  Cak i kad svane sivi su dani
  F
  Uz takav zivot i smrt me mami
  Dm
  Ja zivim sama u svetu tuge

  Noci duge
  I smrt me mami
  IiiiiiiiiIIIIIIIII
  Noci duge
  Smrt me mami
  MMMMMMmmmmm
  UUUuuuuuu  uuuuUu
  isklj. distorzija

  Am7
  Nocas sam oci okrenula nebu
  Am7
  Trazila zvezdu pod koju da stanem
      Dm
  Ali sve su one pale na zemlju
    Am               G
  I dale mi snage da sebi priznam


 Sve akorde treba hvatati na najprostiji moguci nacin (tj. 
 bez barihvata Am, Dm, G i C).
 Umesto Am7 moze da ide i cisti Am (Am7/D zvuci slicno), a najbolje je
 kombinovano.
 Kod dela sa distorzijom mogu se svirati i riffovi (ali je meni bolje
 ovako).
 Slabije poznati akordi dati su na kraju fajla.

 SOLO:

  b - bend up (na prag u zagradama)
  r - release bend
  h - hammer on
  p - pull off
  ~ - vibrato
  * - flazolet - izvodi se tako sto se zica tek dotakne (ne pritisne!)
		 TACNO na tom pragu i okine
  \ - slide down
  / - slide up

E-12b(13)r12---------12b(13)r12----15---12b(13)12-----------------
H------------13-----------------13----------------13--------------
G---------------12-----------------------------------12~~---------
D-----------------------------------------------------------------
A-----------------------------------------------------------------
E-----------------------------------------------------------------

E-----------------------------------------------------------------
H--------------------------------------------------12-13-15\------
G--------------------------------------------12-14----------------
D-----------------------------------12-14-15----------------------
A--12--10------10----------------15-------------------------------
E---------13-------13-12--10~-------------------------------------

E-----------------12-13-15------15b(17)----15---13---
H--------12-13-15------------------------------------
G--12-14---------------------------------------------
D----------------------------------------------------
A----------------------------------------------------
E----------------------------------------------------

E--15-12-----------------12-15-12-----------------------12-
H-------13-------------13--------13-------------------13---
G---------12---------12------------14---------------14-----
D-----------14-----14----------------14-12-----14-12-------
A-------------15-15-----------------------15-15------------
E----------------------------------------------------------

E-------------------------------10~-------*5*--------------
H-13-10-------------------10-13-------*5*------------------
G------10---------------10---------------------------------
D--------12-10-----10-12-----------------------------------
A-------------12-12----------------------------------------
E----------------------------------------------------------

E-13h15p13\12h13p12\10h12p10\8h10p8\7h8p7\5h7p5\3h5p3\1h3p1---
H-------------------------------------------------------------
G-------------------------------------------------------------
D-------------------------------------------------------------
A-------------------------------------------------------------
E-------------------------------------------------------------

E-0h1p0-------------------------
H------3h5p3\1h3p1-0h1p0--------
G-------------------------2--0~-
D-------------------------------
A-------------------------------
E-------------------------------


------------------------------------------------------------
  Am7   Hm7-5 Fmaj7
E--0------1-----0-------------------------------------------
H--1------3-----1-------------------------------------------
G--0------2-----2-------------------------------------------
D--2------0-----3-------------------------------------------
A--0------2-----3-------------------------------------------
E-----------------------------------------------------------
            

comments powered by Disqus
↑ Back to top | Negativ Tabs for Svet Tuge. Lyrics for acoustic guitar and electric guitar. Tablatures and chords are parodies/interpretations of the original songs. You may use it for private study, scholarship, research or language learning purposes only