>
 >
Sex

Sex Guitar Tabs

Negativ - Sex chords, tabs, tablatures, lyrics

Guitar lessons | Add/correct | Request | Top 50 tabs Artists:  A B C D E F G H I J K L M N O P Q R S T U V W X Y Z 0-9

Sex Guitar Tabs – Negativ

CD, Sheet music, Poster

Do you like Sex? Share with your friends now
Tabs

 v - spustanje i vracanje tona tremolom
 b - bend up
 r - release bend
 ~ - vibrato
 / - slide up
 \ - slide down
 X - dead note


Verse:
   Am            G          F
E--5---v--v-7----3---v--v-7----8------------
H--5---v--v------3---v--v---10--------------
G--5---v--v------4---v--v---10--------------
D--7---v--v------5---v--v---10--------------
A--7---v--v------5---v--v---8---------------
E--5---v--v------3---v--v-------------------

 Ne znam da li vetar cuje, tisinu paraju dodiri, obrazi su rumeni
 Ja igram u ritmu talasa, zelja mi oci zatvara, usne otvaram za tebe

 Distorzija:
   D5         A5
E-------------------------------------------------------------------------
H-------------------------------------------------------------------------
G--7----------------------------------------------------------------------
D--7----------7--------------7/8--8-7/8-8-XX-8-8---7/8--8-7/8---XX-1010---
A--5----------7--------------7/8--8-7/8-8-XX-8-8---7/8--8-7/8---XX-1010---
E-------------5--------------5/6--6-5/6-6-XX-6-6---5/6--6-5/6-6-XX-8-8----
    Ooooooooo o Aaaaaaaaaaa  heej 


   Am            G          F               
E--5---v--v-7----3---v--v-7----8------------\
H--5---v--v------3---v--v---10-------------- |
G--5---v--v------4---v--v---10-------------- |
D--7---v--v------5---v--v---10-------------- | Gitara 1 (cista)
A--7---v--v------5---v--v---8--------------- |
E--5---v--v------3---v--v------------------- |
                                             |
E------------------------------------------- |
H---------8b(10)------------------(spusti)-- |
G------------------------------------------- |
D------------------------------------------- | Gitara2 (distorzija)
A------------------------------------------- |
E-------------------------------------------/

  Sex

  Am              G              F
E---------0-----------------------------5-7/8~~----------\
H-------1-----------------------------5------------------ |
G-----2------------------------------5------------------- | Gitara1
D---2-------------------------------7-------------------- | (cista)
A-0------------------------------------------------------ |
E-------------------------------------------------------- |
                                                 wah      |
E---------17b-r----------15b-r----------13b-r~~--10--\--- |
H--17b-r----------15b-r----------13b-r-----------10--\--- |
G-------------------------------------------------------- | Gitara2
D-------------------------------------------------------- | (distorzija)
A-------------------------------------------------------- |
E--------------------------------------------------------/

 Razlaganje akorda:

 Am                         G                      F
 Zemlja nas je zagrlila, na mojoj kozi mesec sija, krisom nas posmatra
 Ja igram u ritmu talasa,   zelja mi oci zatvara,  usne otvaram za tebe

 Ooooooooo o Aaaaaaaaaaa  heej
 Ooooooooo o Aaaaaaaaaaa  heeeeeeeej

REFREN:

(treba uhvatiti ritam)

  E5          C5         A5              G5      F#/G5
E-------------------------------------------------------------------
H-------------------------------------------------------------------
G-------------5-----------------------------------------------------
D-2-----------5----------7---------------5-------5------------------
A-2-----------3----------7---------------5-------5------------------
E-0----------------------5---------------3-------2------------------

  U meni vise nema mesta ni za sta drugo osim za tebe
  Vreme neka stane neka to ostane

  Am              G              F
E-------------------------7/8-7--------------------------\
H-----8/10~~~~~~~~~~~~~-8------8-8/10~~~~~~~~~~---------- |
G-------------------------------------------------------- | Gitara1
D-------------------------------------------------------- | (cista)
A-------------------------------------------------------- |
E-------------------------------------------------------- |
                                                 ph       |
E---------17b-r----------15b-r----------13b-r~~--10br\--- |
H--17b-r----------15b-r----------13b-r-----------10br\--- |
G-------------------------------------------------------- | Gitara2
D-------------------------------------------------------- | (distorzija)
A-------------------------------------------------------- |
E--------------------------------------------------------/

 Ja volim ukus tvog poljupca
 Mmmmmmm... ja volim ukus tvog poljupca!

  U meni vise nema mesta ni za sta dr





Comments


Popular Negativ tabs & chords
Laz Tabs
Svet Tuge Tabs
Ti Me Ne Volis Tabs
Vreme Je Tabs


Song lyrics



↑ Back to top | Tablatures and chords are parodies/interpretations of the original songs. You may use it for private study, scholarship, research or language learning purposes only
© 2014 AZChords.com Contact us | Privacy policy | DMCA | Add/correct tabs | Request tabs | Top 50 tabs