» » »

Laz Tabs (ver.1)

Artists:  A B C D E F G H I J K L M N O P Q R S T U V W X Y Z # 

Laz Tabs (ver.1)

Negativ
Rating:
0/5 (0 votes)

Hard to play? Try these video lessons and learn fast.
                
E|--------------------------------------------
H|--------------------------------------------
G|--------------------------------------------
D|-2-------5-----2---5-----2-----2---5--5---2-
A|-2-------5-----2---5-----2-----2---5--5---2-  X 3
E|-0-------3-----0---3-----0-----0---3--3---0-

E|----------------------------
H|----------------------------
G|----------------------------
D|-2-------5-----2---5-----3--
A|-2-------5-----2---5-----3--
E|-0-------3-----0---3-----1--


 Barihvati: 
 Em, Am, Dsus2 (pogledaj na kraju)

 Em                              Am                  Dsus2
 Sve sto treba mi ko sitan pesak sad kroz prste promice
 Em                         Am            Dsus2
 I dizem zidove do neba visoke da me ne vide


DISTORZIJA:
E|------------------------------------------------------7-7--777-7-7---
H|------------------------------------------------------8-8--888-8-8---
G|------------------------------------------------------9-9--999-9-9---
D|-2------2--------------7-7--8-8--2------2----------------------------
A|-2------2--------------7-7--8-8--2------2----------------------------
E|-0------0-/7-6-5~~-----5-5--6-6--0------0-/7-6-5~~-------------------
   Oooooooooooooooo,  na vrhu sveta stojim i cekam te,
   Oooooooooooooooo, vec dugo samo brojim    oblake

 Da svaka laz je 
E|--------------------------------------------------------------------
H|--------------------------------------------------------------------
G|--------------------------------------------------------5-555-7788--
D|-2------5---------------------------------------5-5555--5-555-7788--
A|-2--5/7-----7---5--------------0-h-2--7--2p0----5-5555--3-333-5566--
E|-0------------------7---5~~------------------3--3-3333--------------
   kap       stajala bih ja                       do koze pokisla

  Da svaka laz je kap stajala bih ja do koze pokisla


 Pevusenje (riffovi):

 E5   F#5    G5     A5
 Uuuuuuuuuuuuuuuuuuuuuuuuuhu

 Em				 Am             Dsus2
 Nekad pozelim da sebe povredim, da vidim da li to
 Em                        Am   Dsus2
 Trazim okove jake, nestvarne

 Ooooo, na vrhu sveta stojim i cekam te,
 Ooooo, vec dugo samo brojim oblake
 Da svaka laz je kap stajala bih ja do koze pokisla
 Da svaka laz je kap stajala bih ja do koze pokisla

 Tihi deo:
E|-----------------------
H|-----------------------
G|-----------------------
E|-2---------------------
H|-2---------------------
G|-0-----2--5~-----7~----
   Kap   la la la  laaaaa


 Ooooo, na vrhu sveta stojim i cekam te,
 Ooooo, vec dugo samo brojim oblake
 Da svaka laz je kap stajala bih ja do koze pokisla
 Da svaka laz je kap stajala bih ja do koze pokisla
 Ja vidim samo laz

     Dsus2
E:-0-     -5-
H:-3-     -5-
G:-2- ILI -7-
D:-0-     -7-
A:---     -5-
E:---     ---
            
Hard to play? Try these video lessons and learn fast. | Correct




comments powered by Disqus
↑ Back to top | Tablatures and chords are parodies/interpretations of the original songs. You may use it for private study, scholarship, research or language learning purposes only