» » »

Prima Di Andare Via Bass tabs (ver.1)

Artists:  A B C D E F G H I J K L M N O P Q R S T U V W X Y Z # 

Prima Di Andare Via Bass tabs (ver.1)

Neffa
Rating:
0/5 (0 votes)

Hard to play? Try these video lessons and learn fast.
                Prima di Andare Via
By Neffa off of “I Molteplici Mondi di Giovanni, il Cantante Neffa”

Intro/Verse:
------------------------2-2-2-2-2-2-4-5-4\0--|
-2-2-2-2-2-4-5-4\0---------------------------|
-----------------------0-0-0-0-0-0-2-3-2-----|
0-0-0-0-0-2-3-2------------------------------|

Chorus:
------------------------------------------------------------------|
-10-10-10-10--9-9--12--12---14---14---14---14---15---15---17---17-|
------------------------------------------------------------------|
8--8---8--8---7-7-10--10---12---12---12---12---13---13---15---15--|
The last note is a ‘B’ when getting out of the chorus
            
Hard to play? Try these video lessons and learn fast. | Correct




comments powered by Disqus
↑ Back to top | Tablatures and chords are parodies/interpretations of the original songs. You may use it for private study, scholarship, research or language learning purposes only