» » »

Nothing Like Bass tabs (ver.1)

Artists:  A B C D E F G H I J K L M N O P Q R S T U V W X Y Z # 

Nothing Like Bass tabs (ver.1)

Neds Atomic Dustbin
Rating:
0/5 (0 votes)

Hard to play? Try these video lessons and learn fast.
                
Tuning: Standard
*Note: This is only the Bass 1 part, but I may update with the Bass 2 part later.
**Note: This is my first tab ever and I've only been playing bass for 2 days (I'm a 
so sorry if it's not very good.

Intro
G|-------7----7----7----7----7--------15-15-15-15-12-11---11-----------------|
D|-----5--5-5--5-5--5-5--5-5--5---0-0---0--0--0--0--0----0-------------------|
A|---------------------------------------------------------------------------|
E|---------------------------------------------------------------------------|


Verse(my struming may be a little off, but it doesn't make that much of a difference anyway)
G|---------7------7--------7------7-------15-15-15-15-12-11---11-----------|
D|-----5-5--55-55--555-5-5--55-55-----0-0---0--0--0--0--0----0-------------|
A|-------------------------------------------------------------------------|
E|-------------------------------------------------------------------------|
Last time do this
G|---------7------7--------7------7-------7-9-9-11-11-12-12----------------|
D|-----5-5--55-55--555-5-5--55-55-----0-0--0-0-0--0--0--0------------------|
A|-------------------------------------------------------------------------|
E|-------------------------------------------------------------------------|


Chorus(again, the strumming isn't all that important)
G|------------------------7-7-77-------------------------------------------|
D|-----9-9-99-7-5-55-5-57--------7-5-5-55-55-------------------------------|
A|-------------------------------------------------------------------------|
E|-------------------------------------------------------------------------|

G|------------------------7-7-77-------------------------------------------|
D|-----9-9-99-7-5-55-5-57--------7-5-5-55-55-5-----------------------------|
A|----------------------------------------------7--------------------------|
E|-------------------------------------------------------------------------|


Ending
G|---------7------7--------7------7-------7-9-9-11-11-12-12----------------|
D|-----5-5--55-55--555-5-5--55-55-----0-0--0-0-0--0--0--0------------------|
A|-------------------------------------------------------------------------|
E|-------------------------------------------------------------------------|


Last Time
G|---------7------7--------7------7-------7-9-9-11-11-11-------------------|
D|-----5-5--55-55--555-5-5--55-55-----0-0--0-0-0--0--0---------------------|
A|-------------------------------------------------------------------------|
E|-------------------------------------------------------------------------|
            
Hard to play? Try these video lessons and learn fast. | Correct




comments powered by Disqus
↑ Back to top | Tablatures and chords are parodies/interpretations of the original songs. You may use it for private study, scholarship, research or language learning purposes only