» » »

Neds Atomic Dustbin, Happy Tabs (ver.1)

Artists:  A B C D E F G H I J K L M N O P Q R S T U V W X Y Z # 

Happy Tabs (ver.1)

Neds Atomic Dustbin Tabs
 Rating:
4/5 (5 votes)
Happy lessons Tabs too difficult? Try these video lessons and learn fast
1
                This song uses a wha pedal, which is crazy, if u don't own one I suggest that instead of
muting the chords you leave them open so the string in the middle vibes more allowing it
to sound a little more "wha pedal"ish.
Example:
G-9-         G-9-
D-x-    =    D-0-
A-7-         A-7-
E---         E---



Intro/ verse:
W/ wha pedal
e|--------------------------------------------------------------|
B|--------------------------------------------------------------|
G|11-11-11--9-7-6-7-9-------------------------------------------|
D|x--x--x---x-x-x-x-x-------------------------------------------|
A|9--9--9---7-5-4-5-7-------------------------------------------|
E|--------------------------------------------------------------|




e|--------------------------------------------------------------|
B|--------------------------------------------------------------|
G|12-12-12-x-12-12-12-x--14-14-12-11--9-7/-9--------------------|
D|-x--x--x-x--x--x--x-x--x--x--x--x---x-x--x--------------------|
A|10-10-10-x-10-10-10-x--12-12-10-9---7-5/-7--------------------|
E|--------------------------------------------------------------|

e|--------------------------------------------------------------|
B|--------------------------------------------------------------|
G|5-5-5-x-5-5-5-x-11-11-9-7-6-7-9-------------------------------|
D|x-x-x-x-x-x-x-x-x--x--x-x-x-x-x-------------------------------|
A|7-7-7-x-7-7-7-x-9--9--7-5-4-5-7-------------------------------|
E|--------------------------------------------------------------|

When in verse, take out the wha pedal
Chorus:
e|-------------------------------------------------------------|
B|-------------------------------------------------------------|
G|7-7-7/-11/9-9-9----------------------------------------------|
D|x-x-x--x--x-x-x-9-9-9/-11/--12-12-12-------------------------|
A|5-5-5/-9/-7-7-7-x-x-x/-x/----x--x--x-------------------------|
E|----------------7-7-7/-9/---10-10-10-------------------------|

GUITAR 2:
Verse:
e|3-3-3-3-3-------------------------------------------------------|
B|3-3-3-3-3---3-3-3-----------------------------------------------|
G|0-0-0-0-0---2-2-2--2-2-2----------------------------------------|
D|------------0-0-0--2-2-2----------------------------------------|
A|-------------------0-0-0----------------------------------------|
E|----------------------------------------------------------------|








Chorus:
e|-------------------------------------------------------------|
B|-------------------------------------------------------------|
G|7------------------------------------------------------------|
D|7---7---9----5-----------------------------------------------|
A|5---7---9----5-----------------------------------------------|
E|----5---7----3-----------------------------------------------|

End:
e|--------------------------------------------------------------|
B|10--10--10------15--15--15------------------------------------|
G|12b-12b-12b-----17b-17b-17b-----------------------------------|
D|--------------------------------------------------------------|
A|--------------------------------------------------------------|
E|--------------------------------------------------------------|
            
Submit corrections

comments powered by Disqus
↑ Back to top | Neds Atomic Dustbin Tabs for Happy. Lyrics for acoustic guitar and electric guitar. 1 Tablatures and chords are parodies/interpretations of the original songs. You may use it for private study, scholarship, research or language learning purposes only