>
 >
Seven

Seven Guitar Tabs

Necrophagist - Seven chords, tabs, tablatures, lyrics

Guitar lessons | Add/correct | Request | Top 50 tabs Artists:  A B C D E F G H I J K L M N O P Q R S T U V W X Y Z 0-9

Seven Guitar Tabs – Necrophagist

CD, Sheet music, Poster

Do you like Seven? Share with your friends now
Tabs
This is about it...

Gtr I (D G C F A D) - 'Guitar Left'
Gtr II (D G C F A D) - 'Guitar Right'
Gtr III (D G C F A D) - 'Lead 1'
Gtr IV (D G C F A D) - 'Lead 2'

 Riff A (0:00) x 2
  Q=200
 8/4                           6/4
  Gtr I
  PM----|      PM----|   ~~~    PM-|
|-----------------------------|---------------------------|
|-----------------------------|---------------------------|
|-----------------------------|--------------------<5>----|
|-6--6--6------6--6--6--------|-6--6--10p6h8-------<4>----|
|-3--3--3--[7]-3--3--3--[7]---|-3--3----------------------|
|-----------------------------|--------------0------------|
|
| Gtr II
| PM----|      PM----|   ~~~    PM-|
|-----------------------------|---------------------------|
|-----------------------------|---------------------------|
|-----------------------------|---------------------------|
|-----------------------------|---------------------------|
|----------[3]----------[3]---|---------------------------|
|-1--1--1------1--1--1--------|-1--1---4p1h3-0-(0)--------|


 8/4                             6/4
  PM-----|      PM------|  ~~~    PM--|
|-------------------------------|---------------------0----|
|-------------------------------|--------------------------|
|-------------------------------|--------------------------|
|-----6--6------6--6------------|-----6--10p6-8------------|
|-3-3-3--3--[7]-3--3--3-3-[7]---|-3-3-3--------------------|
|-------------------------------|---------------0----------|
|
| PM-----|      PM------|  ~~~    PM--|
|-------------------------------|--------------------------|
|-------------------------------|--------------------------|
|-------------------------------|--------------------------|
|-------------------------------|--------------------------|
|-----------[3]-----------[3]---|--------------------------|
|-1-1-1--1------1--1--1-1-------|-1-1-1---4p1h3-0-(0)------|


   8/4
    Gtr I
    PM----|      PM----|   ~~~
||------------------------------|
||o-----------------------------|
||------------------------------|
||--6--6--6------6--6--6--------|
||o-3--3--3--[7]-3--3--3--[7]---|
||------------------------------|
|
|   Gtr II
|   PM----|      PM----|   ~~~
||------------------------------|
||o-----------------------------|
||------------------------------|
||------------------------------|
||o----------[3]----------[3]---|
||--1--1--1------1--1--1--------|


 1.                           2.
 6/4
  PM-|                         PM-|
|---------------------------||--------------------0----|
|--------------------------o||-------------------------|
|--------------------<5>----||-------------------------|
|-6--6--10p6h8-------<4>----||-6--6--10p6h8------------|
|-3--3---------------------o||-3--3--------------------|
|--------------0------------||--------------0----------|
|
| PM-|                         PM-|
|---------------------------||-------------------------|
|--------------------------o||-------------------------|
|---------------------------||-------------------------|
|---------------------------||-------------------------|
|--------------------------o||-------------------------|
|-1--1---4p1h3-0-(0)--------||-1--1---4p1h3-0-(0)------|


 Riff B (0:32)
 5/4              4/4
|----------------|----------|-------------------|---------------|
|----------------|----------|---0---------------|---------------|
|----------------|----------|-9-----------------|---------------|
|----------------|----------|-----10------------|---------------|
|--2--------3----|----------|--------12-(12)----|-(12)----------|
|----------------|-0--------|-------------------|--------5-4----|
|
|      ~                                                 PM|
|----------------|----------|-------------------|---------------|
|----------------|----------|---0---------------|---------------|
|----------------|----------|-9-----------------|---------------|
|----------------|----------|-----10------------|---------------|
|----------------|-2--------|-------------------|--------3-2----|
|-(0)--3---------|-0--------|---------1--(1)----|--(1)---1-0----|


   Riff C (0:39)
    Q=180
   7/4
    PM----------------------|       PM-------------------
||------------------------------------------------------|
||o-----------------------------------------------------|
||------------------------------------------------------|
||--------------------2-3-5-------5---------------------|
||o-------------1-2-4---------<7>-----------------------|
||--1-1-1-1-1-0-------------0-------3p0h3p0h3-4-1h3p1p0-|
|
|   PM--------------------|         PM-------------------
||------------------------------------------------------|
||o-----------------------------------------------------|
||--------------------------------0---------------------|
||-----------------------------6----5p2h5p2-5h6-3h5-3p2-|
||o-------------------2-3-5-4---------------------------|
||--1-1-1-1-1-0-1-2-4-----------------------------------|


 1.
 -------------------------|     PM------|
|---------------------------------------------||
|-----------------------------8--------------o||
|---------------------------------------------||
|-------------------2-3-5-------6-6-6-6-6-6---||
|-------------1-2-4---------7----------------o||
|-1-1-1-1-1-0-------------0-------------------||
|
|-----------------------|       PM------|
|---------------------------------------------||
|--------------------------------------------o||
|-----------------------------0---------------||
|---------------------------4-----------------||
|-------------------2-3-5-4------------------o||
|-1-1-1-1-1-0-1-2-4-------------1-3-4-4-4-1---||


  2.
  PM----------------------|     PM------|
|-----------------------------------------------|
|-----------------------------8-----------------|
|-----------------------------------------------|
|-------------------2-3-5-------3-3-3-3-3-2-----|
|-------------1-2-4---------7-------------------|
|-1-1-1-1-1-0-------------0---------------------|
|
| PM--------------------|       PM------|
|-----------------------------------------------|
|-----------------------------------------------|
|-----------------------------0-----------------|
|---------------------------4-------------------|
|-------------------2-3-5-4---------------------|
|-1-1-1-1-1-0-1-2-4-------------1-1-1-1-1-0-----|


   Riff D (0:49)
    Q=240
   4/4
    PM--|    PM   PM     PM  PM  PM
||---------------------|-----------------|
||o--------------------|-----------------|
||---------------------|-----------------|
||---------9----9----7-|---6---6---7-6---|
||o--------------------|---------------8-|
||--0-1-0----7----5----|-4---4---4-------|
|
|   PM--|    PM   PM     PM  PM  PM
||---------------------|-----------------|
||o--------------------|-----------------|
||---------------------|-----------------|
||--------12---12---10-|---6---6---7-6---|
||o--------------------|---------------8-|
||--0-1-0----7----5----|-4---4---4-------|


  PM  PM    PM|             PM   PM  PM
|-----------------|--------------------|
|-----------------|--------------------|
|-----------------|--------------------|
|---6---7h9-----9-|-----------10---9---|
|-----------------|-0h12h14------------|
|-4---4-----7-8---|---------7----7---1-|
|
| PM  PM    PM|     PM      PM   PM  PM
|-----------------|--------------------|
|-----------------|--------------------|
|-----------------|----------------7---|
|---6---7p6-----7-|----9p=6----7-------|
|-----------------|--------------------|
|-4---4-----4-5---|-4-------4----4---1-|


  PM--|    PM   PM     PM  PM  PM        PM  PM    PM|
|--------------------|-----------------|-----------------|--------------------|
|--------------------|-----------------|-----------------|--------------------|
|--------------------|-----------------|-----------------|-----------------7--|
|--------9----9----7-|---6---6---7-6---|---6---7h9-----9-|-----------------7--|
|--------------------|---------------8-|-----------------|-14p12p==0-6--3--5--|
|-0-1-0----7----5----|-4---4---4-------|-4---4-----7-8---|-----------4--1-----|
|
| PM--|    PM   PM     PM  PM  PM        PM  PM    PM|      PM
|--------------------|-----------------|-----------------|--------------------|
|--------------------|-----------------|-----------------|--------------------|
|--------------------|-----------------|-----------------|--------------------|
|-------12---12---10-|---6---6---7-6---|---6---7p6-----7-|-------9---------7--|
|--------------------|---------------8-|-----------------|-----------6--3--5--|
|-0-1-0----7----5----|-4---4---4-------|-4---4-----4-5---|--4--------4--1--5--|


 7/4
    PM|   PM    PM|   PM  PM      PM|   PM    PM|   PM
|-----------------------------|----------------------------|
|-----------------------------|----------------------------|
|-----------7-----------------|-----------7----------------|
|-6-----3-----6-----6---6---6-|-6-----3-----6-----6---3----|
|---------4-------------------|---------4------------------|
|---4-1---------4-4---4---4---|---4-1---------4-4---1---4--|
|
|   PM|   PM    PM|   PM  PM      PM|   PM    PM|   PM
|-----------------------------|----------------------------|
|-----------------------------|----------------------------|
|-----------7-----------------|-----------7----------------|
|-6-----3-----6-----6---3---2-|-6-----3-----6-----6---3----|
|---------4-------------------|---------4---------------2--|
|---4-1---------4-4---1---0---|---4-1---------4-4---1---0--|


 7/4
    PM|   PM    PM|   PM  PM      PM|   PM    PM|   PM    PM
|-----------------------------|------------------------------||
|-----------------------------|-----------------------------o||
|-----------7-----------------|-----------7-7-----7---4-4----||
|-6-----3-----6-----6---6---6-|-6-----3----------------------||
|---------4-------------------|---------4-----5-5---2-------o||
|---4-1---------4-4---4---4---|---4-1---------------------1--||
|
|   PM|   PM    PM|   PM  PM      PM|   PM    PM|   PM  PM
|-----------------------------|------------------------------||
|-----------------------------|-----------------------------o||
|-----------7-----------------|-----------7------------------||
|-6-----3-----6-----6---3---2-|-6-----3-----6-----6---3---3--||
|---------4-------------------|---------4-------------------o||
|---4-1---------4-4---1---0---|---4-1---------4-4---1---1----||


 Riff A (1:19)


 Riff B/Beginning of solo (1:35)
                                              Q
 5/4            4/4
  Gtr I
|--------------|----------|-------------------|
|--------------|----------|---0---------------|
|--------------|----------|-9-----------------|
|--------------|----------|-----10------------|
|-2-------3----|----------|--------12-(12)----|
|--------------|-0--------|-------------------|
|
| Gtr II
|    ~
|--------------|----------|-------------------|
|--------------|----------|---0---------------|
|--------------|----------|-9-----------------|
|--------------|----------|-----10------------|
|--------------|-2--------|-------------------|
|-0--3---------|-0--------|---------1--(1)----|
|
| Gtr III
|--------------|----------|-------------------|
|--------------|----------|-------------------|
|--------------|----------|-------------------|
|--------------|----------|-------------------|
|--------------|----------|-------------------|
|--------------|----------|-------------------|


 =240
 6/4
|------------------------------------------------------------|
|------------------------------------------------------------|
|------------------------------------------------------------|
|------------------------------------------------------------|
|-(12)-------------------------------------------------------|
|-------------5--4-------------------------------------------|
|
|             PM|
|------------------------------------------------------------|
|------------------------------------------------------------|
|------------------------------------------------------------|
|------------------------------------------------------------|
|-------------3--2-------------------------------------------|
|--(1)--------1--0-------------------------------------------|
|
|---------------------24-20-------------------------16-19----|
|------------21-23-24-------21-------------------18----------|
|--21--22-24-------------------22-------------17-------------|
|---------------------------------22-------18----------------|
|------------------------------------23-20-------------------|
|------------------------------------------------------------|


 Guitar Solo I (1:42)

 This is the first part of the solo.  Pay attention to the rhythm for the
 rhythm guitar, which is sort of tricky due to the odd timing (this IS
 Necrophagist)

 4/4
                     PM---|
|---------------------------------------|
|---------------------------------------|
|-------------------------------1-------|
|---------------------------------------|
|--3----------------------3-------------|
|--1-----------------1------------------|
|
|                    PM---|
|---------------------------------------|
|---------------------------------------|
|-------------------------------1-------|
|---------------------------------------|
|--3----------------------3-------------|
|--1-----------------1------------------|
|
|-20-18-16----16-18-20-18---16----------|
|----------20------------------20-18-17-|
|---------------------------------------|
|---------------------------------------|
|---------------------------------------|
|---------------------------------------|


                  PM---|
|------------------------------------------|
|------------------------------------------|
|-(1)------------------------1-------------|
|------------------------------------------|
|-----------------------3------------------|
|-----------------1------------------------|
|
|                 PM---|
|------------------------------------------|
|------------------------------------------|
|-(1)------------------------1-------------|
|------------------------------------------|
|-----------------------3------------------|
|-----------------1------------------------|
|
|------------------------------------------|
|------------------------------------------|
|-18--17-15----15---17-15------------------|
|-----------18------------18---17-15-------|
|------------------------------------19-16-|
|------------------------------------------|


 6/4
                 PM---|
|--------------------------------------------------------------|
|--------------------------------------------------------------|
|---------------------------1----------------------------------|
|--------------------------------------------------------------|
|--3-------------------3---------------------------------------|
|----------------1---------------------3-----0-----------------|
|
|                PM---|
|--------------------------------------------------------------|
|--------------------------------------------------------------|
|---------------------------1----------------------------------|
|--------------------------------------------------------------|
|--3-------------------3---------------------2-----------------|
|----------------1---------------------3-----------------------|
|
|------------------13-15-12--------------------------------15--|
|-------------15--------------14------------------------17-----|
|----------15--------------------13-12---------------15--------|
|-------14-------------------------------14-------15-----------|
|----16-------------------------------------15-17--------------|
|-18-----------------------------------------------------------|


 4/4
                     PM---|
|---------------------------------------|
|---------------------------------------|
|-------------------------------1-------|
|---------------------------------------|
|--3----------------------3-------------|
|--1-----------------1------------------|
|
|                    PM---|
|---------------------------------------|
|---------------------------------------|
|-------------------------------1-------|
|---------------------------------------|
|--3----------------------3-------------|
|--1-----------------1------------------|
|
|-18-20---------------------------------|
|-------21---------------------------17-|
|----------22---------------------17----|
|-------------22---------------18-------|
|----------------23-20------20----------|
|----------------------20---------------|


                                              6/4
                  PM---|                                 PM|
|--------------------------------------------|-------------------------------|
|--------------------------------------------|-------------------------------|
|-(1)----------------------1-----------------|-----------------1-------------|
|--------------------------------------------|-------------------------------|
|-----------------------3--------------------|--3-----------3----------------|
|-----------------1--------------------------|-----------1-----------3--0----|
|
|                 PM---|                                 PM|
|--------------------------------------------|-------------------------------|
|--------------------------------------------|-------------------------------|
|-(1)----------------------1-----------------|-----------------1-------------|
|--------------------------------------------|-------------------------------|
|-----------------------3--------------------|--3-----------3-----------2----|
|-----------------1--------------------------|-----------1-----------3-------|
|
|                                                                       ~~
|-17--20----20-24---20----20-(20)b21r(20)-18-|-20----------------------------|
|--------22------------21--------------------|----21-20-21-18h20----23-------|
|--------------------------------------------|-------------------21----21----|
|--------------------------------------------|-------------------------------|
|--------------------------------------------|-------------------------------|
|--------------------------------------------|-------------------------------|


 4/4
               PM--|                        PM--|
|--------------------------|-------------------------------|
|--------------------------|-------------------------------|
|----------------------1---|-(1)-------------------1-------|
|--------------------------|-------------------------------|
|-3----------------3-------|---------------------3---------|
|-1------------1-----------|----------------1--------------|
|
|              PM--|                        PM--|
|--------------------------|-------------------------------|
|--------------------------|-------------------------------|
|----------------------1---|-(1)-------------------1-------|
|--------------------------|-------------------------------|
|-3----------------3-------|---------------------3---------|
|-1------------1-----------|----------------1--------------|
|
|--------------------------|-------------------------------|
|--------------------------|-------------------------------|
|--------------------------|-------------------------------|
|--------------------------|---------6h8h10-8p6------------|
|-------7h8h10-8p7---------|--7h8h10------------10-7h8h10--|
|-6h8h9------------9-6h8h9-|-------------------------------|


 6/4
         PM|
|------------------------------------------------|
|------------------------------------------------|
|-------------1----------------------------------|
|------------------------------------------------|
|-3--------3-------------------------------------|
|--------1--------3-0----------------------------|
|
|        PM|
|------------------------------------------------|
|------------------------------------------------|
|-------------1----------------------------------|
|------------------------------------------------|
|-3--------3--------2----------------------------|
|--------1--------3------------------------------|
|
|------------------------------------------------|
|------------------------------------------------|
|------------------------------------------------|
|-6h8h10-8p6------------------8h10h11-10p8-------|
|------------10-7h8p7-8h10h11--------------11----|
|------------------------------------------------|


 4/4
                   PM--|                            PM---|
|-----------------------------------|---------------------------------------|
|-----------------------------------|---------------------------------------|
|---------------------------1-------|-(1)---------------------1-------------|
|-----------------------------------|---------------------------------------|
|-3--------------------3------------|---------------------3-----------------|
|-1----------------1----------------|---------------1-----------------------|
|
|                  PM--|                            PM---|
|-----------------------------------|---------------------------------------|
|-----------------------------------|---------------------------------------|
|---------------------------1-------|-(1)---------------------1-------------|
|-----------------------------------|---------------------------------------|
|-3--------------------3------------|---------------------3-----------------|
|-1----------------1----------------|---------------1-----------------------|
|
|-----------------------------------|---------------------------------------|
|-----------------------------------|----------9h11h==13-11p9---------------|
|---------9h10h12-10p9--------------|--9h10h12------------------12-10h12h13-|
|-8h10h11----------------11-8h10h11-|---------------------------------------|
|-----------------------------------|---------------------------------------|
|-----------------------------------|---------------------------------------|


 6/4
                 PM---|
|------------------------------------------------------------|
|------------------------------------------------------------|
|---------------------------1--------------------------------|
|------------------------------------------------------------|
|--3-------------------3-------------------------------------|
|----------------1---------------------3-----0-----------0---|
|
|                PM---|
|------------------------------------------------------------|
|------------------------------------------------------------|
|---------------------------1--------------------------------|
|------------------------------------------------------------|
|--3-------------------3---------------------2-----------2---|
|----------------1---------------------3---------------------|
|
|                                                        ~~
|-------------------------------------------13----------12---|
|-11h13h14-13p11-----------------11h13h==14----11h13h14------|
|------------------13-10h12h==13-----------------------------|
|------------------------------------------------------------|
|------------------------------------------------------------|
|------------------------------------------------------------|


 Guitar Solo II (1:56)

 This backing rhythm is a slight variation of riff A, sped up quite a bit.
 There's one variation of riff A played twice, then Muhammed decides to add
 more notes (switch half notes to 2 quarters) for the next 2 times.

 8/4                                   6/4
  Gtr I
   PM-----|         PM---|   ~~~         PM-----|
|-------------------------------------|------------------------------|
|-------------------------------------|------------------------------|
|-------------------------------------|------------------------------|
|--6----6-6---------6----6------------|--6----6-6--10p6h=8-----------|
|--3----3-3----[7]--3----3--[7]-------|--3----3-3--------------------|
|-------------------------------------|---------------------0-(0)----|
|
| Gtr II
|  PM-----|         PM---|   ~~~         PM-----|
|-------------------------------------|------------------------------|
|-------------------------------------|------------------------------|
|-------------------------------------|------------------------------|
|-------------------------------------|------------------------------|
|--------------[3]----------[3]-------|------------------------------|
|--1----1-1---------1----1------------|--1----1-1---4p1h=3--0-(0)----|
|
| Gtr IV
|                   ~~                                         ~~~
|-------------------------------------|------------------------------|
|-18b21r=======18---------------------|-17b18r=======================|
|------------------17-----------13-17-|-----------------18-17-16-----|
|---------------------------15--------|------------------------------|
|-------------------------------------|------------------------------|
|-------------------------------------|------------------------------|


 8/4
  Gtr I
   PM---|                PM---------|      ~~~
|---------------------------------------------------|
|---------------------------------------------------|
|---------------------------------------------------|
|--6--6--6---------------6-----------6--------------|
|--3--3--3----------[7]--3-----------3----[7]-------|
|---------------------------------------------------|
|
| Gtr II
|  PM---|                PM---------|      ~~~
|---------------------------------------------------|
|---------------------------------------------------|
|---------------------------------------------------|
|---------------------------------------------------|
|-------------------[3]-------------------[3]-------|
|--1--1--1---------------1-----------1--------------|
|
| Gtr III
|  PM    PM
|---------------------------------------------------|
|---------------------------------------------------|
|-------------17--------18-------15-----------17----|
|----------15----15-14-----14h17----17-15-18-----17-|
|----15---------------------------------------------|
|-12----13------------------------------------------|


 6/4
   PM---|
|------------------------------------------------------|
|------------------------------------------------------|
|------------------------------------------------------|
|--6--6--6----10p===6h====8----------------------------|
|--3--3--3---------------------------------------------|
|------------------------------0----(0)----------------|
|
|  PM---|
|------------------------------------------------------|
|------------------------------------------------------|
|------------------------------------------------------|
|------------------------------------------------------|
|------------------------------------------------------|
|--1--1--1-----4p===1h====3----0----(0)----------------|
|
|--------------------------------18-21--------------18-|
|------------------------17h20----------23-------20----|
|---------------------18-------------------23-21-------|
|-20h23p20-------20------------------------------------|
|----------22-22---------------------------------------|
|------------------------------------------------------|


 8/4
   PM---------|           PM------------|      ~~~
|-------------------------------------------------------|
|-------------------------------------------------------|
|-------------------------------------------------------|
|--6--6--6-----6----------6--------6-----6--------------|
|--3--3--3-----3----[7]---3--------3-----3----[7]-------|
|-------------------------------------------------------|
|
|  PM---------|           PM------------|      ~~~
|-------------------------------------------------------|
|-------------------------------------------------------|
|-------------------------------------------------------|
|-------------------------------------------------------|
|-------------------[3]-----------------------[3]-------|
|--1--1--1-----1----------1--------1-----1--------------|
|
|----20------------------------------------20-----20h21-|
|-21----21-20h21p20---------------21p20h21----21--------|
|-------------------22p21h==22p21-----------------------|
|-------------------------------------------------------|
|-------------------------------------------------------|
|-------------------------------------------------------|


 6/4
   PM---|
|-------------------------------------|
|-------------------------------------|
|-------------------------------------|
|--6--6--6----10p=6h==8---------------|
|--3--3--3----------------------------|
|---------------------------0--(0)----|
|
|  PM---|
|-------------------------------------|
|-------------------------------------|
|-------------------------------------|
|-------------------------------------|
|-------------------------------------|
|--1--1--1-----4p=1h==3-----0--(0)----|
|
|                               ~~~~
|-24-21-20----20----------------------|
|----------21----20-(20)b21r==(20)----|
|-------------------------------------|
|-------------------------------------|
|-------------------------------------|
|-------------------------------------|


 8/4
  Gtr I
   PM----------------|          PM---------------|      ~~~
|-------------------------------------------------------------------|
|-------------------------------------------------------------------|
|-------------------------------------------------------------------|
|--6---6-------6------6---------6--------6--------6-----------------|
|--3---3-------3------3----[7]--3--------3--------3----[7]----------|
|-------------------------------------------------------------------|
|
| Gtr II
|  PM----------------|          PM---------------|      ~~~
|-------------------------------------------------------------------|
|-------------------------------------------------------------------|
|-------------------------------------------------------------------|
|-------------------------------------------------------------------|
|--------------------------[3]-------------------------[3]----------|
|--1---1-------1------1---------1--------1--------1-----------------|
|
| Gtr IV
|-------------------------------------------------------------------|
|-------------------------------------------------------------------|
|-17-(17)b18r(17)----17-----------------17----------15-18--------15-|
|-----------------18----18-17--15-17-18----18-17-18--------17-18----|
|-------------------------------------------------------------------|
|-------------------------------------------------------------------|


 6/4
   PM--------|
|--------------------------------------------------------|
|--------------------------------------------------------|
|--------------------------------------------------------|
|--6----6------6-----10p=6h==8---------------------------|
|--3----3------3-----------------------------------------|
|------------------------------------0-(0)---------------|
|
|  PM--------|
|--------------------------------------------------------|
|--------------------------------------------------------|
|--------------------------------------------------------|
|--------------------------------------------------------|
|--------------------------------------------------------|
|--1----1------1------4p=1h==3-------0-(0)---------------|
|
|--------------------------------------------------------|
|-----------------------17-(17)b18.5r======17-(17)b19r===|
|-18-15------[15]-18-17----------------18----------------|
|---------18---------------------------------------------|
|--------------------------------------------------------|
|--------------------------------------------------------|


 Guitar Solo III (2:10)

 This gets a bit tricky due to the fact that rhythm guitar 2 is playing a 7/8
 riff (made it into 7/4 for the ease of writing the solo out) over a 4/4 beat.


 7/4
   PM----------------------------------------------------|
|-----------------------------------------|-----------------------------------|
|-----------------------------------------|-----------------------------------|
|-----------------------------------------|-----------------------------------|
|--6---6-------6---6-6--6-6-6-6-6-6-6-6-6-|--6--6--6-6-6-6--10p==6h8----------|
|--3---3-------3---3-3--3-3-3-3-3-3-3-3-3-|--3--3--3-3-3-3--------------------|
|-----------------------------------------|--------------------------0-(0)----|
|
|  PM-------------------|   PM---------------------------|
|-----------------------------------------|-----------------------------------|
|-----------------------------------------|-----------------------------------|
|-----------------------------------------|-----------------------------------|
|-----------------------------------------|-----------------------------------|
|-------------------------3---------------|--3--3-----------------------------|
|--1---1-------1---1-1--1---1-1-1-1-1-1-1-|--------1-1-1-1---4p==1h3-0-(0)----|
|
|                    \4                            /         \4.5
|--------------------0--------------------|-(0)-------------------------------|
|-18-(18)b22-(18)\---0--------------------|-(0)---21-------(21)---------------|
|-----------------------------------------|-----------------------------------|
|-----------------------------------------|-----------------------------------|
|-----------------------------------------|-----------------------------------|
|-----------------------------------------|-----------------------------------|


 7/4
  Gtr I
   PM-------------------------------------------------------------------
|----------------------------------------------------------------------|
|----------------------------------------------------------------------|
|----------------------------------------------------------------------|
|--6----6-----6----6-----6--6--6--6----6-----6----6-----6---6-------6--|
|--3----3-----3----3-----3--3--3--3----3-----3----3-----3---3-------3--|
|----------------------------------------------------------------------|
|
| Gtr II
|  PM----------------------|      PM------------------------------------
|----------------------------------------------------------------------|
|----------------------------------------------------------------------|
|----------------------------------------------------------------------|
|----------------------------------------------------------------------|
|------------------------------3---------------------------------------|
|--1----1-----1----1-----1--1-----1----1-----1----1-----1---1-------1--|
|
| Gtr III
|-20--------------------20--------------------------21-20-(20)b21r(20)-|
|----21p==20-21-20---18----21-20---------------21----------------------|
|-------------------------------------------22-------------------------|
|----------------------------------------22----------------------------|
|--------------------------------20-23---------------------------------|
|----------------------------------------------------------------------|


 -----------------------------|
|-------------------------------------------------------|
|-------------------------------------------------------|
|-------------------------------------------------------|
|--6----6-----6----6-----6----6----10p=6h=8-------------|
|--3----3-----3----3-----3----3-------------------------|
|--------------------------------------------0-(0)------|
|
|-----------------------------|
|-------------------------------------------------------|
|-------------------------------------------------------|
|-------------------------------------------------------|
|-------------------------------------------------------|
|--3----3-----------------------------------------------|
|-------------1----1-----1----1-----4p=1h=3--0-(0)------|
|
|-21-20---18--------------------------------------------|
|------------21-20---18-20------------------------------|
|--------------------------21---------------------------|
|-------------------------------23-22p18h20-20s====22---|
|-------------------------------------------------------|
|-------------------------------------------------------|


 Riff B (2:17)

 Riff C (2:24)

 Riff D (2:33)

 Riff A (3:03) x 2

 Outro (3:35)
  Q=240
 4/4
  Gtrs I, II
|----------|----------|----------*|
|----------|----------|----------*|
|----------|----------|----------*|
|----------|-5--------|-6--------*|
|-6--------|-3--------|-3--------*|
|-4--------|----------|----------*|


Tablature Legend
----------------
 h   - hammer-on
 p   - pull-off
 b   - bend
 pb  - pre-bend
 r   - bend release (if no number after the r, then release immediately)
 /\  - slide into or out of (from/to "nowhere")
 s   - legato slide
 S   - shift slide
  - natural harmonic
[n]  - artificial harmonic
n(n) - tapped harmonic
 ~   - vibrato
 tr  - trill
 T   - tap
 TP  - trem. picking
 PM  - palm muting
\n/  - tremolo bar dip; n = amount to dip
 \n  - tremolo bar down
 n/  - tremolo bar up
/n\  - tremolo bar inverted dip
 =   - hold bend; also acts as connecting device for hammers/pulls
 <>  - volume swell (louder/softer)
 x   - on rhythm slash represents muted slash
 o   - on rhythm slash represents single note slash

Misc Legend
-----------
 |  - bar
||  - double bar
||o - repeat start
o|| - repeat end
*|  - double bar (ending)
 :  - bar (freetime)
 $  - Segno
 &  - Coda





Comments


Popular Necrophagist tabs & chords
Mutilate The Stillborn Bass Tabs
Only Ash Remains Intro Bass Tabs
Advanced Corpse Tumor Tabs
Epitaph Tabs
Fermented Offal Discharge Tabs
Fermented Offal Discharge Intro Tabs
Foul Body Autopsy Tabs
Mutilate The Stillborn Tabs
Only Ash Remains Tabs
The Stillborn One Tabs


Song lyrics



↑ Back to top | Tablatures and chords are parodies/interpretations of the original songs. You may use it for private study, scholarship, research or language learning purposes only
© 2014 AZChords.com Contact us | Privacy policy | DMCA | Add/correct tabs | Request tabs | Top 50 tabs