» » »

Necrophagist, Only Ash Remains Bass tabs (ver.1)

Artists:  A B C D E F G H I J K L M N O P Q R S T U V W X Y Z # 

Only Ash Remains Bass tabs (ver.1)

Necrophagist Tabs
 Rating:
4.3/5 (6 votes)
Only Ash Remains lessons Tabs too difficult? Try these video lessons and learn fast
1
                (Intro)
                              Only Ash Remains                                 


                                                                    Necrophagist




     |----3----|    |---3---|  |----3---|   
     E    E    E    E   E   E  E   E    E   
A||----------------------------------------|
F||--9h--10h--13p--10p--9------9-----------|
C||------------------------12-----10h--12--|
G||----------------------------------------|
D||----------------------------------------|
A||----------------------------------------|


  |----3----|    |---3---|                    |---3---|  |---3---|   
  E    E    E    E   E   E    Q         Q     E   E   E  E   E   E   
------------------------------------|-------------------------------|
------------------------------------|--------------------9--10--13--|
--9h--10h--12p--10p--9--------------|---------9--10--12-------------|
------------------------12s--11~----|---L~--------------------------|
------------------------------------|---0~--------------------------|
------------------------------------|-------------------------------|


   |----3----|   |---3---|   |----3----|    |----3----|    |----3----|   
   E    E    E   E   E   E   E    E    E    E    E    E    E    E    E   
------------------------------------------------------------------------|
----------------------------10h--13h--14p--13h--14p--13p--10h--13p--10--|
----------------10--12--14----------------------------------------------|
--11h--12h--14----------------------------------------------------------|
------------------------------------------------------------------------|
------------------------------------------------------------------------|


  |----3----|    |---3---|  |---3---|     |----3----|    |---3---|  |---3---|   
  E    E    E    E   E   E  E   E   E     E    E    E    E   E   E  E   E   E   
---------------------------------------|---------------------------------------|
--9h--10h--13p--10p--9------9----------|---------------------------------------|
------------------------12-----10--12--|--9h--10h--12p--10p--9------9----------|
---------------------------------------|------------------------12-----11--12--|
---------------------------------------|---------------------------------------|
---------------------------------------|---------------------------------------|


  |----3----|  |---3---|  |---3---|   
  E    E    E  E   E   E  E   E   E   
-------------------------------------|
--------------------------9--10--13--|
---------------9--10--12-------------|
--8h--11h--12------------------------|
-------------------------------------|
-------------------------------------|


   |----3----|   |---3---|   |----3----|    |----3----|                     
   E    E    E   E   E   E   E    E    E    E    E    E      H.             
---------------------------------------------------------|-----------------|
----------------------------10h--13h--14p--13p--10h--13--|--10~------------|
----------------10--12--14-------------------------------|-----------------|
--11h--12h--14-------------------------------------------|-----------------|
---------------------------------------------------------|-----------------|
---------------------------------------------------------|-----------------|





Duration Legend
---------------
W - whole
H - half
Q - quarter
E - 8th
S - 16th
T - 32nd
X - 64th
. - note dotted
|-n-|  - n-tuplets


Tablature Legend
----------------
L - tied note
x - dead note
g - grace note
(n) - ghost note
> - accentuded note
NH - natural harmonic
AH - artificial harmonic
TH - tapped harmonic
SH - semi harmonic
PH - pitch harmonic
h - hammer on
p - pull off
b - bend
br - bendRelease
pb - preBend
pbr - preBendRelease
brb - bendReleaseBend
\n/ - tremolo bar dip
\n - tremolo bar dive
-/n - tremolo bar Release up
/n\ - tremolo bar inverted dip
/n - tremolo bar return
-\n - tremolo bar Release down
S - shift slide
s - legato slide
/ -  slide into from below or out of upwards
\ -  slide into from above or out of downwards
~ - vibrato
W - wide vibrato
tr - trill
TP - tremolo picking
T - tapping
S - slap
P - pop
< - fade in
^ - brush up
v - brush down
            
Submit corrections

comments powered by Disqus
↑ Back to top | Necrophagist Bass for Only Ash Remains. Lyrics for acoustic guitar and electric guitar. 1 Tablatures and chords are parodies/interpretations of the original songs. You may use it for private study, scholarship, research or language learning purposes only