» » »

Necrophagist, Only Ash Remains Tabs (ver.1)

Artists:  A B C D E F G H I J K L M N O P Q R S T U V W X Y Z # 

Only Ash Remains Tabs (ver.1)

Necrophagist Tabs
 Rating:
4.6/5 (9 votes)
Only Ash Remains lessons Tabs too difficult? Try these video lessons and learn fast
                (Intro)
Guitar 1
                                                                           
D||------|--------------------|----------------------|--------------------|
A||------|--------------------|--10------------------|--------------------|
F||------|--------------------|--9-------------------|--------------------|
C||------|--3----------2------|--7---------10--------|--9----------3/-----|
G||------|--3----------0------|------------8---------|--7----------3/-----|
D||------|--1----------0------|------------8---------|--7----------1/-----|


                                                                           
--16-17-19-17-16----16----------------------------------------------------|
-----------------18----17-18-15-17-18-17-15----15----------------15-17-18-|
--------------------------------------------17----16-17-14-16-17----------|
--------------------------------------------------------------------------|
--------------------------------------------------------------------------|
--------------------------------------------------------------------------|


                                                                           
--16-17-19-------------------17-19-20-19-20-19-17-19-17-16-17-19-17-16----|
--------------------17-18-21-------------------------------------------18-|
-----------16-17-19-------------------------------------------------------|
--------------------------------------------------------------------------|
--------------------------------------------------------------------------|
--------------------------------------------------------------------------|


                                                                           
--16----------------------------------------------------16-17-19----------|
-----17-18-15-17-18-17-15----15----------------15-17-18-------------------|
--------------------------17----16-17-14-16-17-------------------16-17-19-|
--------------------------------------------------------------------------|
--------------------------------------------------------------------------|
--------------------------------------------------------------------------|


                                                                           
--------16-17-19-20-16-17-19-17-16----16----------------------------------|
--17-18----------------------------18----17-18-15-17-18-17-15----15-------|
--------------------------------------------------------------17----16-17-|
--------------------------------------------------------------------------|
--------------------------------------------------------------------------|
--------------------------------------------------------------------------|


                                                                           
--------------------16-17-19----------------16-17-19-20-19-20-19-17-19-17-|
-----------15-17-18-------------------17-18-------------------------------|
--14-16-17-------------------16-17-19-------------------------------------|
--------------------------------------------------------------------------|
--------------------------------------------------------------------------|
--------------------------------------------------------------------------|


                                                                           
--16-17-19-17-16----16----------------------------------------------------|
-----------------18----17-18-15-17-18-17-15----15----------------15-17-15-|
--------------------------------------------17----16-17-14-16-17----------|
--------------------------------------------------------------------------|
--------------------------------------------------------------------------|
--------------------------------------------------------------------------|


                                     
--17~---------------|--------------||
--------------------|--------------||
--------------------|--------------||
--------------------|--------------||
--------------------|--------------||
--------------------|--------------||





Guitar 2
                                                                         
D||------|--------------------|--------------------|--------------------|
A||------|--------------------|--------------------|--------------------|
F||------|--------------------|--------------------|--------------------|
C||------|--3----------2------|--2--------3--------|--2----------3/-----|
G||------|--3----------0------|--0--------3--------|--2----------3/-----|
D||------|--1----------0------|--0--------1--------|--0----------1/-----|


                                                                           
--12-13-16-13-12----12----------------------------------------------------|
-----------------15----13-15-12-13-15-13-12----12----------------12-13-15-|
--------------------------------------------14----13-14----13-14----------|
--------------------------------------------------------15----------------|
--------------------------------------------------------------------------|
--------------------------------------------------------------------------|


                                                                           
--12-13-16-------------------13-16-17-16-17-16-13-16-13-12-13-16-13-12----|
--------------------13-15-17-------------------------------------------15-|
-----------13-14-16-------------------------------------------------------|
--------------------------------------------------------------------------|
--------------------------------------------------------------------------|
--------------------------------------------------------------------------|


                                                                           
--12-------------------------------------------------------13-16----------|
-----13-15-12-13-15-13-12----12-------------------13-15-17----------------|
--------------------------14----13-14----13-14-16----------------13-14-16-|
--------------------------------------15----------------------------------|
--------------------------------------------------------------------------|
--------------------------------------------------------------------------|


                                                                           
--------------16-17-------16----------------------------------------------|
--13-15-17-18-------17-18----18-17-15-17----15-------15-------------------|
-----------------------------------------17----16-17----17-16-14-17----14-|
--------------------------------------------------------------------18----|
--------------------------------------------------------------------------|
--------------------------------------------------------------------------|


                                                                           
--------------------12-13-16-------------------13-16-17-16-17-16-13-16-13-|
-----------12-13-15-------------------13-15-17----------------------------|
-----13-14-------------------13-14-16-------------------------------------|
--15----------------------------------------------------------------------|
--------------------------------------------------------------------------|
--------------------------------------------------------------------------|


                                                                           
--12-13-16-13-12----12----------------------------------------------------|
-----------------15----13-15-12-13-15-13-12----12----------------12-13-12-|
--------------------------------------------14----13-14----13-14----------|
--------------------------------------------------------15----------------|
--------------------------------------------------------------------------|
--------------------------------------------------------------------------|


                                     
--13----------------|
--------------------|
--------------------|
--------------------|
--------------------|
--------------------|
            
Submit corrections

comments powered by Disqus
↑ Back to top | Necrophagist Tabs for Only Ash Remains. Lyrics for acoustic guitar and electric guitar. Tablatures and chords are parodies/interpretations of the original songs. You may use it for private study, scholarship, research or language learning purposes only