>
 >
Mutilate The Stillborn

Mutilate The Stillborn Bass Tabs

Necrophagist - Mutilate The Stillborn chords, tabs, tablatures, lyrics

Guitar lessons | Add/correct | Request | Top 50 tabs Artists:  A B C D E F G H I J K L M N O P Q R S T U V W X Y Z 0-9

Mutilate The Stillborn Bass Tabs – Necrophagist

CD, Sheet music, Poster

Do you like Mutilate The Stillborn? Share with your friends now
Bass TabsTabs
-------------------------------------------------------------------------------
-------------------------------------------------------------------------------

Tuning: A-D-G-C-F-A#

i re-tabbed this one guitar pro, so g check that one out instead. this one is wrong. 
get around to fixing it sooner or later though.

(play once)
|---------16~-----------------13------------------------------------------------------|
|--------------------------15---------------12-12-13----------------------------------|
|-2-2-2-2-------------------------14--------------------------------------------------|
|--------------17-17-17-17------------------------------------------------------------|
|------------------------------------12-12--------------------------------------------|
|-------------------------------------------------------------------------------------|

(repeat 3 times)
|------------------------------10-13--|
|-------------------------9-11--------|
|----------------------11-------------|
|-------------------13----------------|
|-12-12-12-12-12-12-------------------|
|-------------------------------------|

(play once)
|-------------16------------------13----------------------------------------------------|
|-----------------12-----------15-------------------------------------------------------|
|--------------------14----14-----------------------------------------------------------|
|---------------------------------------------------------------------------------------|
|-12-12-12-12-----------12--------------------------------------------------------------|
|---------------------------------------------------------------------------------------|

(repeat 3 times)
|------------------------------10-13--|
|-------------------------9-11--------|
|----------------------11-------------|
|-------------------13----------------|
|-12-12-12-12-12-12-------------------|
|-------------------------------------|

(repeat 5 times)
|-------------16-------------------13---------------------------------------------------|
|-----------------12------------15------------------------------------------------------|
|--------------------14-----14----------------------------------------------------------|
|---------------------------------------------------------------------------------------|
|-12-12-12-12------------12-------------------------------------------------------------|
|---------------------------------------------------------------------------------------|

(play once)
|----------------7-7-7-7-10-13---------------13-10-13--------|
|-------------9----------------------------9----------12-----|
|--------------------------------------------------------11--|
|------------------------------------------------------------|
|-12-12-12-12------------------12-12-12-12-------------------|
|------------------------------------------------------------|


**(rest for 2 bars while guitars play fill)**


(repeat 2 times all the way through)
|---0----------------------0----------0-1--4---1-----------------------------------------|
|-----3----------------------3------3--------------3-3-3-3-3-3-3-3-----------------------|
|-4-----2-2-2-2-2-2-2-2--4-----2-4-----------2---2---------------------------------------|
|----------------------------------------------------------------------------------------|
|----------------------------------------------------------------------------------------|
|----------------------------------------------------------------------------------------|

|-4-1---1------7----------------------------------0-1---------------------------------|
|-----3---3-0----6----------------------5-3-----3-------------------------------------|
|------------------8------------------4-----2-4---------------------------------------|
|--------------------7-7-7-7-7-7-7-7--------------------------------------------------|
|-------------------------------------------------------------------------------------|
|-------------------------------------------------------------------------------------|

|-4--1------------16----------------10--------------------------------------------------|
|--------3-3-3-3-----------------12-----------------------------------------------------|
|--2---2-------------14-14-14-14--------------------------------------------------------|
|---------------------------------------------------------------------------------------|
|---------------------------------------------------------------------------------------|
|---------------------------------------------------------------------------------------|

(play once)
|----------------10-------------------------------------------------------------------|
|-------------12----------------------------------------------------------------------|
|-------------------------------------------------------------------------------------|
|------------------10-10-10-10--------------------------------------------------------|
|-12-12-12-12-------------------------------------------------------------------------|
|-------------------------------------------------------------------------------------|

(repeat 2 times all the way through)
|-------------4---3------1-4-7-7-7-7--------4-1---1-4-0-3-10-10-10-10-------16--|
|-----------6---5----------------------0-3------3-------------------------6-----|
|--------------------2-2------------------------------------------------8-------|
|-7-7-7-7----------------------------7--------------------------------7---------|
|-------------------------------------------------------------------------------|
|-------------------------------------------------------------------------------|

|-------------------------4-4-7-10-10---------4-1---1-4-0-3-10-10-10-10-------16--|
|-------------9-9-8-8--------------------0-3------3-------------------------6-----|
|-------------------------------------------------------------------------8-------|
|---------------------7-7-------------7---------------------------------7---------|
|-12-12-12-12---------------------------------------------------------------------|
|---------------------------------------------------------------------------------|

(play 2 times)
|----------------------------------------16----------------10-------------16--|
|-------------------------------------------------------12----12-12-12-12-----|
|-------------------14-11-11-10-10-11-11--------------------------------------|
|-------13-13-13-13-----------------------------------------------------------|
|-12-12-------------------------------------12-12-12-12-----------------------|
|-----------------------------------------------------------------------------|

(play 4 times)
|--------------------------------------7-10--|
|----------------------------9-9-9-9-9-------|
|--------------------------------------------|
|-13-------13----13--------------------------|
|----12-12----12----12-12-12-----------------|
|--------------------------------------------|

(play 2 times)
|-----------------------1------------1---------1-4---------1-4---------7-4--------10-13--|
|---------0-3---------3------------3-----------------------------------------------------|
|-------------2-2-2-2-----2-2-2-2------2-2-2-2-----2-2-2-2-----2-2-2-2-----2-2-2-2-------|
|-7-7-7-7--------------------------------------------------------------------------------|
|----------------------------------------------------------------------------------------|
|----------------------------------------------------------------------------------------|


| /  slide up
| \  slide down
| h  hammer-on
| p  pull-off
| ~  vibrato
| +  harmonic
| x  Mute note
===============================================================================





Comments


Popular Necrophagist tabs & chords
Fermented Offal Discharge Bass Tabs
Advanced Corpse Tumor Tabs
Culinary Hyperversity Tabs
Diminished To B Tabs
Dismembered Self-immolation Tabs
Epitaph Tabs
Extreme Unction Tabs
Fermented Offal Discharge Intro Tabs
Only Ash Remains Intro Tabs
Stabwound Tabs


Song lyrics



↑ Back to top | Tablatures and chords are parodies/interpretations of the original songs. You may use it for private study, scholarship, research or language learning purposes only
© 2014 AZChords.com Contact us | Privacy policy | DMCA | Add/correct tabs | Request tabs | Top 50 tabs