>
 >
Intestinal Incubation

Intestinal Incubation Guitar Tabs

Necrophagist - Intestinal Incubation chords, tabs, tablatures, lyrics

Guitar lessons | Add/correct | Request | Top 50 tabs Artists:  A B C D E F G H I J K L M N O P Q R S T U V W X Y Z 0-9

Intestinal Incubation Guitar Tabs – Necrophagist

CD, Sheet music, Poster

Do you like Intestinal Incubation? Share with your friends now
Tabs
0:00
 Intro
  Q=250                              Q=230
 3/4                                  7/4
  Gtr I
              PM-------|               PM|     PM------|    PM
|-----------------|------------------|------------------------------|
|-----------------|------------------|------------------------------|
|-----------------|-------------9----|--------------------------9p5-|
|-----------------|-----6--8-10---10-|-------------------10---9-----|
|-------------5-7-|--9---------------|-2-4-1h5-----8-7--------------|
|--0-4--6--8------|------------------|-0-2-----1-4-----8----7-------|
|
| Gtr II
|                       PM|            PM|     PM------|    PM
|-----------------|------------------|------------------------------|
|-----------------|------------------|------------------------------|
|----9-10S13-10-9-|------------------|------------------------------|
|-----------------|-12-10------------|-------------------10---9-----|
|-10--------------|-------13-11------|-----1h5-----8-7--------------|
|-----------------|------------------|-0-2-----1-4-----8----7-------|


                                        Q=250
 9/4                                     3/4           4/4
  PM|     PM--|    PM  PM|          PM|           PM------|
|---------------------------------------|-------------|---------------|
|---------------------------------------|-------------|---------------|
|-----------------------------5-9p5-----|-------------|---------------|
|---------------10---9------------------|-------------|---6-8-10------|
|-----1h5------------------8------------|---------5-7-|-9--------8----|
|-0-2-----0-6-8----7---0-0----------0-6-|-0-4-6-8-----|---------------|
|
| PM|     PM--|    PM  PM|          PM|                   PM--|
|---------------------------------------|-------------|---------------|
|-------------------------------------8-|---5-6S9-6-5-|---------------|
|-----------------------------------6---|-------------|-7-5-----------|
|---------------10---9-------10---------|-5-----------|-----8--0-6----|
|-----1h5------------------8------------|-------------|---------------|
|-0-2-----0-6-8----7---0-0--------------|-------------|---------------|


 0:08
 Riff 1
 5/4
  Gtrs I, II
  PM           PM        PM--|        PM--|
|----------------------|----------------------|
|----------------------|----------------------|
|----------------------|----------------------|
|-------10-----------9-|-------10-----------9-|
|---7-8----8-7---7-8---|---7-8----8-7---7-8---|
|-0------------0-------|-0------------0-------|


  PM           PM
|----------------------|---------------------|
|----------------------|---------------------|
|----------------------|-------------------7-|
|-------10-----------9-|---------------6-8---|
|---7-8----8-7---7-8---|---------5-7-9-------|
|-0------------0-------|-0-4-6-8-------------|


  Gtr I
  PM               PM         PM---|           PM--|
|---------------------------|---------------------------|
|---------------------------|---------------------------|
|---------------------------|---------------------------|
|---------10--------------9-|---------10--------------9-|
|----7--8-----8--7---7-8----|----7--8-----8--7---7-8----|
|-0----------------0--------|-0----------------0--------|
|
| Gtr II
| PM                 PM|      PM                 PM|
|---------------------------|---------------------------|
|---------------------------|---------------------------|
|------------------------10-|------------------------10-|
|---14-12----10-12----------|---14-12----10-12----------|
|--------------------7-8----|--------------------7-8----|
|-0----------------0--------|-0----------------0--------|


  PM---|           PM--|
|---------------------------|----------------------|
|---------------------------|----------------------|
|---------------------------|-------------------7--|
|---------10--------------9-|---------------6-8----|
|----7--8-----8--7---7-8----|---------5-7-9--------|
|-0----------------0--------|-0-4-6-8--------------|
|
| PM                 PM|
|---------------------------|----------------------|
|---------------------------|----------------------|
|------------------------10-|-------------------7--|
|---14-12----10-12----------|---------------6-8----|
|--------------------7-8----|---------5-7-9--------|
|-0----------------0--------|-0-4-6-8--------------|


  Gtrs I, II
  PM            ~~~     PM            ~~~
|---------------------|---------------------|
|---------------------|---------------------|
|---------------------|---------------------|
|-------10------------|-------10------------|
|---7-8----8-7-[8]----|---7-8----8-7-[8]----|
|-0-------------------|-0-------------------|


  PM            ~~~
|---------------------|----------------------|
|---------------------|----------------------|
|---------------------|-------------------7--|
|-------10------------|---------------6-8----|
|---7-8----8-7-[8]----|---------5-7-9--------|
|-0-------------------|-0-4-6-8--------------|


  Gtr I
  PM            ~~~     PM            ~~~
|---------------------|---------------------|
|---------------------|---------------------|
|---------------------|---------------------|
|-------10------------|-------10------------|
|---7-8----8-7-[8]----|---7-8----8-7-[8]----|
|-0-------------------|-0-------------------|
|
| Gtr II
| PM            ~~~     PM            ~~~
|---------------------|---------------------|
|---------------------|---------------------|
|---------------------|--------------[5]----|
|-------10-----[9]----|-------10------------|
|---7-8----8-7--------|---7-8----8-7--------|
|-0-------------------|-0-------------------|


  PM            ~~~
|---------------------|----------------------|
|---------------------|----------------------|
|---------------------|-------------------7--|
|-------10------------|---------------6-8----|
|---7-8----8-7-[8]----|---------5-7-9--------|
|-0-------------------|-0-4-6-8--------------|
|
| PM            ~~~
|---------------------|----------------------|
|---------------------|----------------------|
|---------------------|-------------------7--|
|-------10-----[9]----|---------------6-8----|
|---7-8----8-7--------|---------5-7-9--------|
|-0-------------------|-0-4-6-8--------------|


  Gtrs I, II
  PM           PM        PM           PM
|----------------------|----------------------|
|----------------------|----------------------|
|----------------------|----------------------|
|-------10-----------9-|-------10-----------9-|
|---7-8----8-7---7-8---|---7-8----8-7---7-8---|
|-0------------0-------|-0------------0-------|


  PM           PM
|----------------------|----------------------|
|----------------------|----------------------|
|----------------------|-------------------7--|
|-------10-----------9-|---------------6-8----|
|---7-8----8-7---7-8---|---------5-7-9--------|
|-0------------0-------|-0-4-6-8--------------|


  Gtr I
  PM               PM         PM               PM
|---------------------------|---------------------------|
|---------------------------|---------------------------|
|---------------------------|---------------------------|
|---------10--------------9-|---------10--------------9-|
|----7--8-----8--7---7-8----|----7--8-----8--7---7-8----|
|-0----------------0--------|-0----------------0--------|
|
| Gtr II
| PM                 PM|      PM                 PM|
|---------------------------|---------------------------|
|---------------------------|---------------------------|
|------------------------10-|------------------------10-|
|---14-12----10-12----------|---14-12----10-12----------|
|--------------------7-8----|--------------------7-8----|
|-0----------------0--------|-0----------------0--------|


  PM               PM
|---------------------------|----------------------|
|---------------------------|----------------------|
|---------------------------|-------------------7--|
|---------10--------------9-|---------------6-8----|
|----7--8-----8--7---7-8----|---------5-7-9--------|
|-0----------------0--------|-0-4-6-8--------------|
|
| PM                 PM|
|---------------------------|----------------------|
|---------------------------|----------------------|
|------------------------10-|-------------------7--|
|---14-12----10-12----------|---------------6-8----|
|--------------------7-8----|---------5-7-9--------|
|-0----------------0--------|-0-4-6-8--------------|


 0:36
 Pre-verse
  Q=230
 8/4                                3/4
      PM|     PM------|    PM        PM|
|----------------------------------|----------|
|----------------------------------|----------|
|-9p5--------------------------9p5-|----------|
|-----------------------10---9-----|----------|
|---------1h5-----8-7--------------|-----1h5--|
|-----0-2-----1-4-----8----7-------|-0-2------|
|
|     PM|     PM------|    PM        PM|
|----------------------------------|----------|
|----------------------------------|----------|
|----------------------------------|----------|
|-----------------------10---9-----|----------|
|---------1h5-----8-7--------------|-----1h5--|
|-----0-2-----1-4-----8----7-------|-0-2------|


   0:39
  Verse
   5/4                    3/4
    PM--|   PM             PM--|   PM---------|   PM    PM----------|
||-----------------------|--------------|-------------|----------------|
||o----------------------|--------------|-------------|----------------|
||-----------------------|--------------|-------------|----------------|
||--------9---9----------|-------9------|-------9---9-|----------------|
||o---7-8---8------------|---7-8---8-10-|---7-8---8---|-8----7---------|
||--0-----------0-6-8-10-|-0------------|-0-----------|---10---9-11-8--|
|
|   PM--|   PM             PM--|   PM---------|   PM    PM----------|
||-----------------------|--------------|-------------|----------------|
||o----------------------|--------------|-------------|----------------|
||-----------------------|--------------|-------------|----------------|
||--------9---9----------|-------9------|-------9---9-|-6----5---------|
||o---7-8---8------------|---7-8---8-10-|---7-8---8---|----8---7--9-6--|
||--0-----------0-6-8-10-|-0------------|-0-----------|----------------|


 5/4                    3/4
  PM--|   PM             PM--|   PM----
|----------------------|--------------|
|----------------------|--------------|
|----------------------|--------------|
|-------9---9----------|-------9------|
|---7-8---8------------|---7-8---8-10-|
|-0-----------0-6-8-10-|-0------------|
|
| PM--|   PM             PM--|   PM----
|----------------------|--------------|
|----------------------|--------------|
|----------------------|--------------|
|-------9---9----------|-------9------|
|---7-8---8------------|---7-8---8-10-|
|-0-----------0-6-8-10-|-0------------|


 -----|   PM    PM--------------|    PM   PM
|-------------|---------------|------------------||
|-------------|---------------|-----------------o||
|-------------|---------------|------------------||
|-------9---9-|---------------|------------------||
|---7-8---8---|-8----7--------|----7----7----8--o||
|-0-----------|---10---9-11-8-|-4----4----5------||
|
|-----|   PM    PM--------------|    PM   PM
|-------------|---------------|------------------||
|-------------|---------------|-----------------o||
|-------------|---------------|------------------||
|-------9---9-|-6----5--------|------------------||
|---7-8---8---|----8---7--9-6-|---10---11---11--o||
|-0-----------|---------------|-7----8----8------||


 0:56
 Riff 2
 7/4
  PM|     PM|     PM   PM   PM
|--------------------------------|
|--------------------------------|
|-----9p5------------------------|
|--------------------------------|
|-------------1h5----7----7----8-|
|-0-0-----0-2-----4----4----5----|
|
| PM|     PM|     PM   PM   PM
|--------------------------------|
|--------------------------------|
|--------------------------------|
|--------------------------------|
|-------------1h5---10---11---11-|
|-0-0-----0-2-----7----8----8----|


 11/4
      PM|     PM   PM   PM--|   PM  PM   PM   PM
|--------------------------------------------------|
|--------------------------------------------------|
|-9p5----------------------------------------------|
|-----------------------------9---9----------------|
|---------1h5----7----7---7-8---8------7----7----8-|
|-----0-2-----4----4----0-----------4----4----5----|
|
|     PM|     PM   PM   PM--|   PM  PM   PM   PM
|--------------------------------------------------|
|--------------------------------------------------|
|--------------------------------------------------|
|-----------------------------9---9----------------|
|---------1h5---10---11---7-8---8-----10---11---11-|
|-----0-2-----7----7----0-----------7----8----8----|


 7/4                              8/4
  PM|     PM|     PM   PM   PM         PM|     PM   PM   PM--|   PM
|--------------------------------|-----------------------------------|
|--------------------------------|-----------------------------------|
|-----9p5------------------------|-9p5-------------------------------|
|--------------------------------|-----------------------------9---9-|
|-------------1h5----7----7----8-|---------1h5----7----7---7-8---8---|
|-0-0-----0-2-----4----4----5----|-----0-2-----4----4----0-----------|
|
| PM|     PM|     PM   PM   PM         PM|     PM   PM   PM--|   PM
|--------------------------------|-----------------------------------|
|--------------------------------|-----------------------------------|
|--------------------------------|-----------------------------------|
|--------------------------------|-----------------------------9---9-|
|-------------1h5---10---11---11-|---------1h5---10---11---7-8---8---|
|-0-0-----0-2-----7----8----8----|-----0-2-----7----7----0-----------|


 1:05
 Riff 3
 7/4
        PM|            PM|        PM|          PM|            PM|        PM|
|--------------------------------------|--------------------------------------|
|--------------------------------------|--------------------------------------|
|--9p5------------9p5------------------|--9p5------------9p5------------------|
|--------------------------------------|--------------------------------------|
|-----------1h=5------------1h=5-------|-----------1h=5------------1h=5-------|
|-------0-2------------0-2--------0--2-|-------0-2------------0-2--------0--2-|
|
|       PM----|        PM-----------|          PM----|        PM-----------|
|--------------------------------------|--------------------------------------|
|--------------------------------------|--------------------------------------|
|-13p9----9------13p9----9----13-11----|-13p9----9------13p9----9----13-11----|
|------10---9---------10---11-------10-|------10---9---------10---11-------10-|
|-------------11-----------------------|-------------11-----------------------|
|--------------------------------------|--------------------------------------|


        PM|            PM|        PM|          PM|          PM|     PM|
|--------------------------------------|--------------------------------|
|--------------------------------------|--------------------------------|
|--9p5------------9p5------------------|--9p5-----------9p5-------------|
|--------------------------------------|--------------------------------|
|-----------1h=5------------1h=5-------|-----------1h=5---------1h5-----|
|-------0-2------------0-2--------0--2-|-------0-2----------0-2-----0-2-|
|
|       PM----|        PM-----------|          PM----|      PM|     PM|
|--------------------------------------|--------------------------------|
|--------------------------------------|--------------------------------|
|-13p9----9------13p9----9----13-11----|-13p9----9----------------------|
|------10---9---------10---11-------10-|------10---9--------------------|
|-------------11-----------------------|-------------11---------1h5-----|
|--------------------------------------|--------------------0-2-----0-2-|


  Gtrs I, II
      PM|         PM|     PM|       PM|         PM|     PM|
|-----------------------------|-----------------------------|
|-----------------------------|-----------------------------|
|-9p5---------9p5-------------|-9p5---------9p5-------------|
|-----------------------------|-----------------------------|
|---------1h5---------1-5-----|---------1h5---------1h5-----|
|-----0-2---------0-2-----0-2-|-----0-2---------0-2-----0-2-|


                               8/4
  Gtr I
      PM|         PM|     PM|       PM|     PM--|    PM  PM--|
|-----------------------------|----------------------------------|
|-----------------------------|----------------------------------|
|-9p5---------9p5-------------|-9p5----------------------------5-|
|-----------------------------|-------------------10---9---------|
|---------1h5---------1h5-----|---------1h5---7-8----8-----------|
|-----0-2---------0-2-----0-2-|-----0-2-----0------------0-0-1---|
|
| Gtr II
|     PM|         PM|     PM|       PM|     PM--|    PM  PM--|
|-----------------------------|----------------------------------|
|-----------------------------|----------------------------------|
|-9p5---------9p5-------------|--------------------------------5-|
|-----------------------------|-------------------10---9---------|
|---------1h5---------1-5-----|---------1h5---7-8----8-----------|
|-----0-2---------0-2-----0-2-|-----0-2-----0------------0-0-1---|


          Q=250
 2/4       7/4
      PM|               PM-----|
|---------|-----------------------------------|
|---------|-----------------------------------|
|-9p5-----|-----------------------------------|
|---------|---------------------6--8-10-------|
|---------|-------------5-7--9-----------8----|
|-----0-7-|--0-4--6--8------------------------|
|
|     PM|                       PM---|
|---------|-----------------------------------|
|-------8-|-----------------------------------|
|-----6---|----9-10S13-10-9-------------------|
|---------|-----------------12-10-------------|
|---------|-10--------------------13----11----|
|---------|--------------------------10-------|


 1:24

 Riff 1


 Guitar Solo (1:54)
  Q=100
 4/4
  Gtrs I, II
|-----------------|-----------------------|
|-----------------|-----------------------|
|-----------------|-----------------------|
|-10----------10--|----6------------------|
|-10----------11--|----7------------------|
|--8-----------8--|----4--------------9\--|
|
| Gtr III
|       \1                     /      /
|-----------------|-------------------0---|
|-----------------|-------------------0---|
|-----[14]--------|-([14])--([14])----0---|
|-----------------|-----------------------|
|-----------------|-----------------------|
|-----------------|-----------------------|
|
| Gtr IV
|       \1                     /      /
|-----------------|-------------------0---|
|-----------------|-------------------0---|
|-----[10]--------|-([10])--([10])----0---|
|-----------------|-----------------------|
|-----------------|-----------------------|
|-----------------|-----------------------|


                  Q=220
|-----------------|--------------------------------------|
|-----------------|--------------------------------------|
|-----------------|--------------------------------------|
|--10---------10--|--6-----------------------------------|
|--10---------11--|--7-----------------------------------|
|---8----------8--|--4-----------------------------------|
|
|   \1.5
|                                               ~~~~~~~
|-----------------|-------------16-20-21-20-16-16-(16)---|
|-----------------|----------18--------------------------|
|-----------------|-------16-----------------------------|
|-[13]------------|----18--------------------------------|
|-----------------|-20-----------------------------------|
|-----------------|--------------------------------------|
|
|   \1.5
|                                               ~~~~~~~
|-----------------|-------------13-17-18-17-13-13-(13)---|
|-----------------|----------18--------------------------|
|-----------------|-------13-----------------------------|
|-[11]------------|----15--------------------------------|
|-----------------|-17-----------------------------------|
|-----------------|--------------------------------------|


 4/4
  Gtrs I, II
      PM---------------------------|
|-------------------------------------|
|-------------------------------------|
|-------------------------------------|
|--3----------------------------------|
|-------------------------------------|
|-----1--1--1--1--1--1--1--1--1--1--1-|
|
| Gtr III
|-20-16----------16-20h21-20-16-------|
|-------18----18----------------18----|
|----------17----------------------17-|
|-------------------------------------|
|-------------------------------------|
|-------------------------------------|


      PM---------|     PM-------------|
|------------------------------------------|
|------------------------------------------|
|------------------------------------------|
|------------------------------------------|
|--4-----------------3---------------------|
|-----1--1--1--1--1----1-1--1----1----1----|
|
|----16-20h21-20-16-----------16---19---16-|
|-18----------------18-----18--------------|
|------------------------------------------|
|------------------------------------------|
|------------------------------------------|
|------------------------------------------|


        PM---------------------------------------------------|
|--------------------------------------------------------------|
|--------------------------------------------------------------|
|--------------------------------------------------------------|
|--3-----------------------------------------------------------|
|--------------------------------------------------------------|
|-------1----1-----1----1----1-----1----1----1-----1----1----1-|
|
|                                                          ~~~~~
|--------------------------------------------------------------|
|-20-18--------------------------------------------------------|
|---------21---18-21-18----------------------------------------|
|-------------------------22---20-18h20---22---20-18h20---17---|
|--------------------------------------------------------------|
|--------------------------------------------------------------|


       PM--------|      PM--------|
|------------------------------------|
|------------------------------------|
|------------------------------------|
|------------------------------------|
|---4----------------4---------------|
|------1-1--1--1--1-----1--1--1-1-1--|
|
|~~~~~~                       ~~
|-------------------18---------------|
|----------------18----18------------|
|-------------18----------18---------|
|-(17)-----20----------------20------|
|------------------------------------|
|------------------------------------|


      PM------------------|      PM----------|      PM---------|
|---------------------------|------------------------------------|
|---------------------------|------------------------------------|
|---------------------------|------------------------------------|
|--2------------------------|------------------------------------|
|---------------------------|--3---------------3-----------------|
|-----0-0-0-0-0-0-0-0-0-0-0-|----0-0--0----0-0------0----0-0-0-0-|
|
|  \1
|                                     T           T    ~~
|---------------------------|--------24----------24--------------|
|-<5>-----------------------|-20--------20------------20---------|
|---------------------------|------------------------------------|
|---------------------------|------------------------------------|
|---------------------------|------------------------------------|
|---------------------------|------------------------------------|


     PM---------------------------------|      PM--------|      PM---------|
|-----------------------------------------|----------------------------------|
|-----------------------------------------|----------------------------------|
|-----------------------------------------|----------------------------------|
|--2--------------------------------------|----------------------------------|
|-----------------------------------------|--3---------------4---------------|
|----0----0--0-0----0--0-0----0--0-0----0-|----0-0--0--0--0-----0---0--0-0-0-|
|
|----------------18------------------18S==|=21-----18h21----21p18-/22--------|
|--------------------------18-------------|--------------20-----------20-----|
|-----------------------------------------|----------------------------------|
|-17--------20--------20--------20--------|----------------------------------|
|------19---------------------------------|----------------------------------|
|-----------------------------------------|----------------------------------|


  Gtrs I, II
        PM-------------------------------------|
|---------------------------------------------------|
|---------------------------------------------------|
|---------------------------------------------------|
|---3-----------------------------------------------|
|---------------------------------------------------|
|-------1--1--1--1--1--1--1--1---1-----1-------1----|
|
| Gtr III
|---------------------------------------------------|
|-(20)----------------------------------------------|
|---------------------------------------------------|
|---------------------------------------------------|
|---------------------------------------------------|
|---------------------------------------------------|
|
| Gtr IV
|                            ~~~~~~~
|---------------------------------------------------|
|---------------------------------------------------|
|---------------17----------------------------------|
|---------17-18----18-17-15--------------15-17---18-|
|--16--19-------------------16-(16)-16--------------|
|---------------------------------------------------|


        PM-------------------|          PM-------------------|
|-----------------------------------------------------------------|
|-----------------------------------------------------------------|
|-----------------------------------------------------------------|
|-----------------------------------------------------------------|
|--4-------------------------------3------------------------------|
|-------1----1-----1----1----1----------1----1-----1----1----1----|
|
|-----------------------------------------------------------------|
|-----------------------------------------------------------------|
|-----------------------------------------------------------------|
|-----------------------------------------------------------------|
|-----------------------------------------------------------------|
|-----------------------------------------------------------------|
|
|-----------------------------------------------------------------|
|---------15---18-15S14-----------------------------------16---18-|
|-15-17-------------------15---------16---17---17-17-19-----------|
|------------------------------17-18------------------------------|
|-----------------------------------------------------------------|
|-----------------------------------------------------------------|


  Gtrs I, II
        PM------------------------------------------------|
|-----------------------------------------------------------|
|-----------------------------------------------------------|
|-----------------------------------------------------------|
|--3--------------------------------------------------------|
|-----------------------------------------------------------|
|-------1-1-----1----1----1-----1----1----1-----1----1----1-|
|
| Gtr IV
|-----------------------------------------------------------|
|-21b23r====19-18-------------------------------------------|
|-----------------19--------19-21-----------21--------------|
|----------------------22---------22---21------18-17---18---|
|-----------------------------------------------------------|
|-----------------------------------------------------------|


     PM---------|         PM------|
|-----------------------------------|
|-----------------------------------|
|-----------------------------------|
|-----------------------------------|
|--4----------------4---------------|
|----1-1-1-1----1---------1-1-1-1-1-|
|
|-----------------------------------|
|------------21---(21)b23-----------|
|-----------------------------------|
|-17--------------------------------|
|-----------------------------------|
|-----------------------------------|


        PM---------------------------------------------------|
|-----------------------------------------------------------------|
|-----------------------------------------------------------------|
|-----------------------------------------------------------------|
|--2--------------------------------------------------------------|
|-----------------------------------------------------------------|
|-------0----0-----0----0----0-----0----0----0-----0----0----0----|
|
|-15-16---19---16-15----------------------------------------------|
|--------------------18---17---14-17-18---14----------------------|
|----------------------------------------------17-15--------------|
|----------------------------------------------------18---17---18-|
|-----------------------------------------------------------------|
|-----------------------------------------------------------------|


     PM-------------------|          PM----------|
|--------------------------------------------------|
|--------------------------------------------------|
|--------------------------------------------------|
|--------------------------------------------------|
|--3----------------------------3------------------|
|----0----0-----0----0----0----------0-----0-0-0-0-|
|
|                                       \2
|--------------------------------------------------|
|------17---18-17-14-------------------------------|
|-17-------------------17---15----15---------------|
|------------------------------18------17----------|
|--------------------------------------------------|
|--------------------------------------------------|


       PM-------------------|        PM------|     PM-------|
|-----------------------------|-------------------------------|
|-----------------------------|-------------------------------|
|-----------------------------|-------------------------------|
|---2-------------------------|-------------------------------|
|-----------------------------|---3------------4--------------|
|------0-0-0--0-0-0-0-0-0-0-0-|------0-0-0-0-0-----0--0-0-0-0-|
|
|             /
|------------21---------------|-(21)-------------(21)---------|
|-----------------------------|-------------------------------|
|-----------------------------|-------------------------------|
|-(17)------------------------|-------------------------------|
|-----------------------------|-------------------------------|
|-----------------------------|-------------------------------|


 Guitar Solo (2:20)
                                         PM--|
|------------------------------|--------------------------|
|------------------------------|--------------------------|
|------------------------------|------------------1h5p1---|
|---3--------------------------|-(3)--------------------3-|
|---3--------------------------|-(3)----------------------|
|---1--------------------------|-(1)-----1---1------------|
|
| Gtr III
|                 T      T        T      T        ~~~
|------------4h8-13p8p4-12p8p4-|-15p9p4-12p9p==4-13-----8-|
|----------6-------------------|--------------------------|
|--------5---------------------|--------------------------|
|------6-----------------------|--------------------------|
|---8--------------------------|--------------------------|
|------------------------------|--------------------------|
|
| Gtr IV
|   |
|-(21)-------------------------|--------------------------|
|------------------------------|--------------------------|
|------------------------------|--------------------------|
|------------------------------|--------------------------|
|------------------------------|--------------------------|
|------------------------------|--------------------------|


                                                  ~~~
|-----------------------------|----------------------------|
|-----------------------------|----------------------------|
|-----------------------------|----------------------------|
|-3---------------------------|-(3)------------------------|
|-3---------------------------|-(3)------3h4-----[3]-------|
|-1---------------------------|-(1)------------------------|
|
|              T                     T            ~~~
|-4-------4-8-16s20p4-------4h|==8--13p8p4-------------14S=|
|---6---6-------------6---6---|--------------6-8-(8)-------|
|-----5-----------------5-----|----------------------------|
|-----------------------------|----------------------------|
|-----------------------------|----------------------------|
|-----------------------------|----------------------------|
|
|-----------------------------|----------------------------|
|-----------------------------|----------------------------|
|-----------------------------|----------------------------|
|-----------------------------|----------------------------|
|-----------------------------|----------------------------|
|-----------------------------|----------------------------|


                            PM-------------|
|-----------|--------------------------------|
|-----------|--------------------------------|
|-----------|--------------------0----4----0-|
|-----------|----------------------------2---|
|-----------|--------------------------------|
|--0--------|-(0)-----------0-0--------------|
|
|  ~~                                    ~~
|-19--------|-19--19-19-19-19---19b20r==19---|
|-----------|--------------------------------|
|-----------|--------------------------------|
|-----------|--------------------------------|
|-----------|--------------------------------|
|-----------|--------------------------------|


                                                              ~~
|-------------------------------------|-------------------------------------|
|-------------------------------------|-------------------------------------|
|-------------------------------------|-------------------------------------|
|-------------------------------------|-------------------------------------|
|-------------------------------------|-------------------------------------|
|--0----------------------------------|-(0)--------3S4--------3-------------|
|
|                       T                          T          ~~
|-20p14----------14h20-24p20-14-------|-----14-20-24---20-------------------|
|-------17----17----------------17----|-17----------------19----------------|
|----------15----------------------15-|----------------------21-------------|
|-------------------------------------|--------------------------15h17------|
|-------------------------------------|--------------------------------15---|
|-------------------------------------|-------------------------------------|


                         PM----|
|-----------|-------------------------------------|
|-----------|-------------------------------------|
|-----------|----------------------1h====5p==1----|
|--3--------|--(3)------------------------------3-|
|--3--------|--(3)--------------------------------|
|--1--------|--(1)-------1-----1------------------|
|
|  ~~
|-19--------|-(19)b20r=(19)b20r==(19)b20r==(19)---|
|-----------|-------------------------------------|
|-----------|-------------------------------------|
|-----------|-------------------------------------|
|-----------|-------------------------------------|
|-----------|-------------------------------------|


                                                  ~~~~~~~~
|----------------------------|---------------------------------|
|----------------------------|---------------------------------|
|----------------------------|---------------------------------|
|--3-------------------------|-(3)-----------------------------|
|--3-------------------------|-(3)------3h====4--[3]-----------|
|--1-------------------------|-(1)-----------------------------|
|
|                   T
|-19-19-19-19b20---24-19pb20r|=19b20r=(19)b20r==(19)b20r=(19)--|
|----------------------------|---------------------------------|
|----------------------------|---------------------------------|
|----------------------------|---------------------------------|
|----------------------------|---------------------------------|
|----------------------------|---------------------------------|


                                                   PM------------|
|-------------------------------------|-----------------------------|
|-------------------------------------|-----------------------------|
|-------------------------------------|------------------0--4-----0-|
|-------------------------------------|------------------------2----|
|-------------------------------------|-----------------------------|
|--0----------------------------------|-(0)--------0--0-------------|
|
|                    T
|-19p15----------15-24p19p15----------|-15h19h20-(20)---19-20-17-20-|
|-------17----17-------------17----17-|-----------------------------|
|----------16-------------------16----|-----------------------------|
|-------------------------------------|-----------------------------|
|-------------------------------------|-----------------------------|
|-------------------------------------|-----------------------------|


                                            ~
|-----------------------|------------------------------|
|-----------------------|------------------------------|
|-----------------------|------------------------------|
|-----------------------|------------------------------|
|-----------------------|------------------------------|
|--0--------------------|-(0)--------3S===4-3----------|
|
|                    ~~
|-15-20----20----20-----|-17--19-20-24b26------24b25r==|
|-------19----17----16--|------------------------------|
|-----------------------|------------------------------|
|-----------------------|------------------------------|
|-----------------------|------------------------------|
|-----------------------|------------------------------|


 Guitar Solo (2:39)
 6/4
  Gtrs I, II
                                         PM      PM         PM
|---------------------------------------------------------------------|
|---------------------------------------------------------------------|
|-------------------1h=======5p=====1---------------------------------|
|--------------------------------------3------------------------------|
|------------3------------------------------2-------------------------|
|---1------------------------------------0-------0-----3----0------2--|
|
| Gtr III
|-(24)b25r========(24)b25r========(24)--------------------------------|
|---------------------------------------------------------------------|
|---------------------------------------------------------------------|
|---------------------------------------------------------------------|
|---------------------------------------------------------------------|
|---------------------------------------------------------------------|
|
| Gtr IV
|                                   ~~~~                       ~~~~~~~
|--18-----21-------21----------21-------------------------------------|
|--------------20---------18-------17------15-17---18-17-15-----------|
|-------------------------------------------------------------17-(17)-|
|---------------------------------------------------------------------|
|---------------------------------------------------------------------|
|---------------------------------------------------------------------|


   PM---|                   PM         PM         PM
|-------------------------------------------------------------|
|--------------------------------6----------------------------|
|-----------1h====5p==1---------------------6-----------5-----|
|------------------------3--3----------3----------3-----------|
|-------3-----------------------------------------------------|
|--1----------------------------------------------------------|
|
|-------------------------------------------------------------|
|-------------------------------------------------------------|
|-------------------------------------------------------------|
|-------------------------------------------------------------|
|-------------------------------------------------------------|
|-------------------------------------------------------------|
|
|-24b25r==(24)b25r==(24)---18-21---24-21-18-------------------|
|---------------------------------------------21----/21---23--|
|------------------------------------------------19-----------|
|-------------------------------------------------------------|
|-------------------------------------------------------------|
|-------------------------------------------------------------|


  Gtrs I, II
                              PM         PM         PM
|-------------------------------------------------------------|
|-------------------------------------------------------------|
|-------------1h===5p====1------------------------------------|
|--------------------------3----------------------------------|
|-------3--------------------------2--------------------------|
|--1--------------------------0----------0----3-----0----2----|
|
| Gtr IV
|     T                  ~~              T
|-21-24---21--------------------19------24-19-----------------|
|------------23-20---23------20------20---------20----20------|
|-----------------------23-------------------------21------21-|
|-------------------------------------------------------------|
|-------------------------------------------------------------|
|-------------------------------------------------------------|


   PM---|                PM  PM
|--------------------------------------|
|--------------------------6-----------|
|-------------1h===5p1---------6---5---|
|----------------------3-3---3---------|
|-------3------------------------------|
|--1-----------------------------------|
|
|-20---------21b27r==============(21)--|
|----20--------------------------------|
|---------21---------------------------|
|--------------------------------------|
|--------------------------------------|
|--------------------------------------|


 2:46
 Solo outro
              PM  PM  PM    PM|         PM  PM  PM
|-------------------------|-------------------------|
|-------------------------|---------------6---------|
|-----1h5p1---------------|-----1h5p1---------6---5-|
|-----------3-------------|-----------3-3---3---3---|
|---3-----------2---------|---3---------------------|
|-1-----------0---0-3-0-2-|-1-----------------------|


              PM  PM  PM    PM|         PM  PM  PM
|-------------------------|-------------------------|
|-------------------------|---------------5---------|
|-----1h5p1---------------|-----1h5p1---------5---4-|
|-----------3-------------|-----------3-2---2---2---|
|---3-----------2---------|---3---------------------|
|-1-----------0---0-3-0-2-|-1-----------------------|


 2:53
 7/4                            4/4
  Gtr I
      PM|     PM------|    PM        PM|
|------------------------------|---------------|
|------------------------------|---------------|
|-9p5--------------------------|-9p5-----------|
|-----------------------10---9-|---------------|
|---------1h5-----8-7----------|---------1h5---|
|-----0-2-----1-4-----8----7---|-----0-2-------|
|
| Gtr II
|     PM|     PM------|    PM        PM|
|------------------------------|---------------|
|------------------------------|---------------|
|------------------------------|---------------|
|-----------------------10---9-|---------------|
|---------1h5-----8-7----------|---------1h5---|
|-----0-2-----1-4-----8----7---|-----0-2-------|


 2:56

 Verse

 3:13

 Riff 2

 3:22

 Riff 3

 3:41

 Riff 1





Comments


Popular Necrophagist tabs & chords
Mutilate The Stillborn Bass Tabs
Only Ash Remains Intro Bass Tabs
Advanced Corpse Tumor Tabs
Epitaph 2 Tabs
Extreme Unction Tabs
Fermented Offal Discharge Intro Tabs
Foul Body Autopsy Tabs
Seven Tabs
Stabwound Tabs
Stabwound 1 Tabs


Song lyrics



↑ Back to top | Tablatures and chords are parodies/interpretations of the original songs. You may use it for private study, scholarship, research or language learning purposes only
© 2014 AZChords.com Contact us | Privacy policy | DMCA | Add/correct tabs | Request tabs | Top 50 tabs