>
 >
Foul Body Autopsy

Foul Body Autopsy Guitar Tabs

Necrophagist - Foul Body Autopsy chords, tabs, tablatures, lyrics

Guitar lessons | Add/correct | Request | Top 50 tabs Artists:  A B C D E F G H I J K L M N O P Q R S T U V W X Y Z 0-9

Foul Body Autopsy Guitar Tabs – Necrophagist

CD, Sheet music, Poster

Do you like Foul Body Autopsy? Share with your friends now
Tabs
                                FOUL BODY AUTOPSY
                           As recorded by Necrophagist
                   (From the 1999 Album ONSET OF PUTREFACTION)

Words and Music by M. Suicmez (1994)
Arranged by Necrophagist

Gtr I (D G C F A D) - 'Rhythm 1'
Gtr II (D G C F A D) - 'Rhythm 2'
Gtr III (D G C F A D) - 'Solo'

  Q=240
 4/4
  Gtr I
  PM--------------------------------------|   PM--|     PM--|   PM--|
  E E E E E E E E   E E E E E E E E   E E E E E E E E   E E E E E E E E
|-----------------|-----------------|-----------------|-----------------|
|-----------------|-----------------|-----------------|-----------------|
|-----------------|-----------------|-----------------|-----------------|
|-----------------|-----------------|-----------------|-----------------|
|-----------8-7-8-|---7-5-7---------|---5-4-1---5-4-1-|---5-4-1---5-4-1-|
|-0-6-7-6-0-------|-0-------0-1-3-1-|-0-------1-------|-3-------1-------|
|
| Gtr II
| PM--------------------------------------|   PM--|     PM--|   PM--|
| E E E E E E E E   E E E E E E E E   E E E E E E E E   E E E E E E E E
|-----------------|-----------------|-----------------|-----------------|
|-----------------|-----------------|-----------------|-----------------|
|-----------------|-----------------|-----------------|-----------------|
|-----------------|-----------------|-----------------|-----------------|
|-----------8-7-8-|---7-5-7---------|---5-4-1---5-4-1-|---5-4-1---5-4-1-|
|-0-6-7-6-0-------|-0-------0-1-3-1-|-0-------1-------|-3-------1-------|


  PM--------------------|   PM--|     PM--------------------------------|
  E E E E E E E E   E E E E E E E E   E E E E E E  E  E   E E E E E E E  E
|-----------------|-----------------|-------------------|-------------------|
|-----------------|-----------------|-------------------|-------------------|
|-----------------|-----------------|-------------------|-------------------|
|-----------------|-----------------|-------------------|-----------9-8-----|
|---8-7-8---5-7-5-|---5-4-1---5-4-1-|---8-7-8---8-10-11-|---7-8-7-8-----10--|
|-0-------0-------|-0-------1-------|-0-------0---------|-0-----------------|
|
| PM--------------------|   PM--|     PM------------------------------|
| E E E E E E E E   E E E E E E E E   E E E E E E  E  E   E E E E E E E  E
|-----------------|-----------------|-------------------|-------------------|
|-----------------|-----------------|-------------------|-------------------|
|-----------------|-----------------|-------------------|----------------9--|
|-----------------|-----------------|-------------------|-----------9-8-----|
|---8-7-8---5-7-5-|---5-4-1---5-4-1-|---8-7-8---8-10-11-|---7-8-7-8---------|
|-0-------0-------|-0-------1-------|-0-------0---------|-0-----------------|


                           PM---------------------
  |-3--|
  E  E E  E  E E  E E  E   E E  E  E E  E E  E
|------------------------|-----------------------|
|------------------------|-----------------------|
|-9h12p9----12-9---------|-----------------------|
|--------11------11-8-11-|-----------------------|
|------------------------|-----10-10-7--7-7--7---|
|------------------------|-0-0-------------------|
|
| |-3--|                   |-3--|
| E  E E  E  E E  E E  E   E E  E  E E  E E  E E
|-9h12p9----12-9---------|-----------------------|
|--------11------11-8-11-|-----------------------|
|------------------------|-6h9p=6------12-9----9-|
|------------------------|---------8--------11---|
|------------------------|-----------7-----------|
|------------------------|-----------------------|


 ----------|                   PM-------------|
               |--3--|
   E  E  E  E  E  E  E  E  E   E E E E E  E E  E
|----------------------------|-----------------------|
|----------------------------|-----------------------|
|----------------------------|-----------------------|
|--------------8h11p=8-------|-----------------------|
|-10-10-10-10----------10----|-----------------------|
|--------------------------9-|-6-6-6-6-9--9-9--9-----|
|
|              |--3--|         |-3-|
|  E  E  E  E  E  E  E  E  E   E E E E E  E E  E E
|----------------------------|-----------------------|
|-11--8-----8-11h14p11----14-|-----------------------|
|--------9-------------12----|-6h9p6-----12-9----9---|
|----------------------------|-------8--------11-----|
|----------------------------|---------7-------------|
|----------------------------|-----------------------|


   PM----|           PM-----------------------
   E E E E  E E Q    E   E   E E  E  E  E  E
|------------------|-------------------------|
|------------------|-------------------------|
|------------------|-------------------------|
|------------------|-------------------------|
|--7-7-7-7---------|-7---7---7-7-10-10-10-10-|
|-----------3------|-------------------------|
|
|                    |--3--|
|  E E E E  E E Q    E E   E E E  E  E  E  E
|------------------|-------------------------|
|-11-8---8-14------|-------------------------|
|------9-----------|-6h9p==6-----12--9-----9-|
|------------------|---------8---------11----|
|------------------|-----------7-------------|
|------------------|-------------------------|


 --------|                  PM-------------------|
            |--3--|
   E E E E  E  E  E  E  E   E   E   E E  E  E  E  E
|-------------------------|--------------------------|
|-------------------------|--------------------------|
|-------------------------|--------------------------|
|--8-8-8-8--8h11p=8-------|--------------------------|
|-------------------10----|-7---7---7-7-10-10-10-10--|
|-----------------------9-|--------------------------|
|
|           |--3--|         |--3--|
|  E E E E  E  E  E  E  E   E E   E E E  E  E  E  E
|-------------------------|--------------------------|
|-11-8---8-11h14p11----14-|--------------------------|
|------9------------12----|-6h9p==6-----12--9-----9--|
|-------------------------|---------8---------11-----|
|-------------------------|-----------7--------------|
|-------------------------|--------------------------|


   To Dbl. Coda
 3/4            4/4
   PM----|  ~~
   E E E E  Q     E  E  E  E  E E  E  E
|--------------|-13p10----10------------|
|--------------|-------12----12-9-------|
|--------------|------------------10----|
|--8-8-8-8-11--|---------------------12-|
|--------------|------------------------|
|--------------|------------------------|
|
|           ~~
|  E E E E  Q     E  E  E  E  E E  E  E
|--------------|-13p10----10------------|
|-11-8---8-14--|-------12----12-9-------|
|------9-------|------------------10----|
|--------------|---------------------12-|
|--------------|------------------------|
|--------------|------------------------|


  |-3--|
  E  E E  E  E  E E  E E    E E Q  H      W
|------------------------|--------------|------||
|------------------------|--------------|------||
|------------------------|-10-----------|------||
|-9h12p9-------12-9----9-|--9-----------|------||
|--------11---------11---|--------------|------||
|-----------10-----------|--------------|------||
|
| |-3--|
| E  E E  E  E  E E  E E    E E Q  H      W
|------------------------|--------------|------||
|------------------------|--------------|------||
|------------------------|-10-----------|------||
|-9h12p9-------12-9----9-|--9-----------|------||
|--------11---------11---|--------------|------||
|-----------10-----------|--------------|------||


    $
    PM|
    E  E E  E E  E E  E    E E  E E  E E E  E  4x
||----------------------|-12p9----9------------||-|
||o---------------------|------11---11-8------o||-|
||------------9h12------|----------------9-----||-|
||-------8h11------8h11-|------------------11--||-|
||o-7-10----------------|---------------------o||-|
||----------------------|----------------------||-|
|
|   PM|
|   E  E E  E E  E E  E    E E  E E  E E E  E  4x
||----------------------|-12p9----9------------||-|
||o---------------------|------11---11-8------o||-|
||------------9h12------|----------------9-----||-|
||-------8h11------8h11-|------------------11--||-|
||o-7-10----------------|---------------------o||-|
||----------------------|----------------------||-|


     PM|                        PM    PM    PM
     E  E  E  E  E  E E  E  3x  E  E  E  E  E  E  E  E
||--------------------------||--------------------------||
||o------------------------o||--------------------------||
||---------------9h12-------||-----------------------9--||
||---------8h11-------8h11--||-----9----10-----9--8-----||
||o--7-10------------------o||--7-----7-----7-----------||
||--------------------------||--------------------------||
|
|                                     PM------|
|    E  E  E  E  E  E E  E  3x  E  E  E  E  E  E  E  E
||--12p=9-----9-------------||--------------------------||
||o-------11----11--8------o||-------------------14-14--||
||--------------------9-----||-12s11-12-14-12-11--------||
||----------------------11--||--------------------------||
||o------------------------o||--------------------------||
||--------------------------||--------------------------||


                           |-3--|
   E  E  E  E  E E  E  E   E  E E  E  E  E E  E E
|-13p10----10------------|------------------------|
|-------12----12-9-------|------------------------|
|------------------10----|------------------------|
|---------------------12-|-9h12p9-------12-9----9-|
|------------------------|--------11---------11---|
|------------------------|-----------10-----------|
|
|                          |-3--|
|  E  E  E  E  E E  E  E   E  E E  E  E  E E  E E
|-13p10----10------------|------------------------|
|-------12----12-9-------|------------------------|
|------------------10----|------------------------|
|---------------------12-|-9h12p9-------12-9----9-|
|------------------------|--------11---------11---|
|------------------------|-----------10-----------|


                        |-3--|
   E E  E E  E E E  E   E  E E  E  E  E E  E E
|-12p9----9-----------|-------------------------|
|------11---11-8------|-------------------------|
|----------------9----|-------------------------|
|------------------11-|-8h11p8-------11-8----8--|
|---------------------|--------10---------10----|
|---------------------|-----------10------------|
|
|                       |-3--|
|  E E  E E  E E E  E   E  E E  E  E  E E  E E
|-12p9----9-----------|-------------------------|
|------11---11-8------|-------------------------|
|----------------9----|-------------------------|
|------------------11-|-8h11p8-------11-8----8--|
|---------------------|--------10---------10----|
|---------------------|-----------10------------|


                           |-3--|
   E  E  E  E  E E  E  E   E  E E  E  E  E E  E E
|-13p10----10------------|------------------------|
|-------12----12-9-------|------------------------|
|------------------10----|------------------------|
|---------------------12-|-9h12p9-------12-9----9-|
|------------------------|--------11---------11---|
|------------------------|-----------10-----------|
|
|                          |-3--|
|  E  E  E  E  E E  E  E   E  E E  E  E  E E  E E
|-13p10----10------------|------------------------|
|-------12----12-9-------|------------------------|
|------------------10----|------------------------|
|---------------------12-|-9h12p9-------12-9----9-|
|------------------------|--------11---------11---|
|------------------------|-----------10-----------|


                                      PM------------|
                             |--3--|
   E  E  E  E  E  E  E  E    E  E  E  E  E  E  E  E  E
|-12p=8-----8-------------|-----------------------------||
|-------10----10----------|-----------------------------||
|-----------------9-------|-----------------------------||
|-------------------10----|-----------------------------||
|----------------------12-|--8h12p=8--------------------||
|-------------------------|----------12-10--8--7--8-10--||
|
|                                     PM------------|
|                            |--3--|
|  E  E  E  E  E  E  E  E    E  E  E  E  E  E  E  E  E
|-17-12----12-------------|-----------------------------||
|-------13----13----------|-----------------------------||
|----------------14-------|-----------------------------||
|-------------------14----|-----------------------------||
|----------------------15-|-12h15p12--------------------||
|-------------------------|----------15-13-12-10-12-13--||


                  To Coda
                               7/8
     PM|                         PM    PM    PM
     E  E  E  E  E  E  E  E  3x  E  E  E  E  E  E  E
||---------------------------||----------------------||
||o-------------------------o||----------------------||
||---------------9h12--------||----------------------||
||---------8h11--------8h11--||-----9----10-----9--8-||
||o--7-10-------------------o||--7-----7-----7-------||
||---------------------------||----------------------||
|
|    PM|                               PM------|
|    E  E  E  E  E  E  E  E  3x  E  E  E  E  E  E  E
||---------------------------||----------------------||
||o-------17----17----------o||-13s12-13-17-13-12-15-||
||-----15----15----15-13-15--||----------------------||
||--14-----------------------||----------------------||
||o-------------------------o||----------------------||
||---------------------------||----------------------||


 4/4
                             ~~
   E  E  E  E  E  E  E  E    W
|-12p=8----12p=8----------|-------|
|-------10-------10h12p=9-|-------|
|-------------------------|-10----|
|-------------------------|-------|
|-------------------------|-------|
|-------------------------|-------|
|
|                            ~~
|  E  E  E  E  E  E  E  E    W
|-17p12----17p12----------|-------|
|-------13-------13h15p12-|-------|
|-------------------------|-14----|
|-------------------------|-------|
|-------------------------|-------|
|-------------------------|-------|


     PM--------------------------------------
     Q          Q       Q        Q
||------------------------------------------|
||o-----------------------------------------|
||------------------------------------------|
||------------------------------------------|
||o--4----------4-------4--------4----------|
||---6----------6-------6--------6----------|
|
|    PM--------------------------------------
|    Q          Q       Q        Q
||------------------------------------------|
||o-----------------------------------------|
||------------------------------------------|
||------------------------------------------|
||o--4----------4-------4--------4----------|
||---6----------6-------6--------6----------|
|
|   Gtr III
|    PM------|                   PM------|
|               |-3--|  |--3--|
|    S  S  S  S E  E E  E  E  E  S  S  S  S
||--------------9h13p9----------------------|
||o----------11--------11----------------11-|
||--------10--------------10----------10----|
||-----11--------------------11----11-------|
||o-13--------------------------13----------|
||------------------------------------------|


 --------|                    PM            PM---------------|
  Q       Q        E     E    E    E        H                 H
|---------------------------------------||-------------------------------------|
|--------------------------------------o||-------------------------------------|
|---------------------------------------||-------------------------------------|
|---------------------------------------||--2-----------------2----------------|
|-4-------4--------7p====4---------4---o||--2-----------------2----------------|
|-6-------6-------------------6---------||--0-----------------0----------------|
|
|--------|                    PM            PM---------------|
| Q       Q        E     E    E    E        H                 H
|---------------------------------------||-------------------------------------|
|--------------------------------------o||-------------------------------------|
|---------------------------------------||-------------------------------------|
|---------------------------------------||--2-----------------2----------------|
|-4-------4--------7p====4---------4---o||--2-----------------2----------------|
|-6-------6-------------------6---------||--0-----------------0----------------|
|
|                  PM------|
| |-3--|  |--3--|             |--3---|      |--3--|  |--3--|  |--3--|  |--3--|
| E  E E  E  E  E  S  S  S  S E  E   E      E  E  E  E  E  E  E  E  E  E  E  E
|-9h13p9----------------------9h13p==9--||-15h19p15----------------------15h19-|
|--------11----------------11----------o||----------17----------------17-------|
|-----------10----------10--------------||-------------16----------16----------|
|--------------11----11-----------------||----------------17----17-------------|
|-----------------13-------------------o||-------------------19----------------|
|---------------------------------------||-------------------------------------|


   PM------------------------------------------------------------------|
   H                 E    E     E    E       Q        Q        Q        Q
|-----------------------------------------|-------------------------------------|
|-----------------------------------------|-------------------------------------|
|-----------------------------------------|-------------------------------------|
|--2--------------------------------------|-------------------------------------|
|--2-----------------2----1-----2----3----|--7--------7--------7--------7-------|
|--0--------------------------------------|--0--------0--------0--------0-------|
|
|  PM------------------------------------------------------------------|
|  H                 E    E     E    E       Q        Q        Q        Q
|-----------------------------------------|-------------------------------------|
|-----------------------------------------|-------------------------------------|
|-----------------------------------------|-------------------------------------|
|--2--------------------------------------|-------------------------------------|
|--2-----------------2----1-----2----3----|--7--------7--------7--------7-------|
|--0--------------------------------------|--0--------0--------0--------0-------|
|
|  T                                                                 T
|  |--3--|  |--3--|  |---3---|  |---3---|    |--3--|  |--3--|  |--3--|  |--3--|
|  E  E  E  E  E  E  E  E    E  E  E    E    E  E  E  E  E  E  E  E  E  E  E  E
|-24p19p15------------------------15h==19-|-12h15p12----------12h15h18p15p12----|
|----------17------------------17---------|----------14----14----------------14-|
|-------------16------------16------------|-------------12----------------------|
|----------------17----17-----------------|-------------------------------------|
|-------------------19--------------------|-------------------------------------|
|-----------------------------------------|-------------------------------------|


   E    E     E     E     E    E     E     E
|-------------------------------------------------|
|-------------------------------------------------|
|-------------------------------------------------|
|--9----8-----9----10-----9----8-----9----10------|
|-------------------------------------------------|
|-------------------------------------------------|
|
|  E    E     E     E     E    E     E     E
|-------------------------------------------------|
|-------------------------------------------------|
|-------------------------------------------------|
|--9----8-----9----10-----9----8-----9----10------|
|-------------------------------------------------|
|-------------------------------------------------|
|
|             T           T          T
|  |---3---|  |---3----|  |---3---|  |---3----|
|  E  E    E  E  E     E  E  E    E  E  E     E
|-12h15p==12-18p15p===12-19p15p==12-20p12h===15---|
|-------------------------------------------------|
|-------------------------------------------------|
|-------------------------------------------------|
|-------------------------------------------------|
|-------------------------------------------------|


     PM--------------------------------------
     Q          Q       Q        Q
||------------------------------------------|
||o-----------------------------------------|
||------------------------------------------|
||------------------------------------------|
||o--4----------4-------4--------4----------|
||---6----------6-------6--------6----------|
|
|    PM--------------------------------------
|    Q          Q       Q        Q
||------------------------------------------|
||o-----------------------------------------|
||------------------------------------------|
||------------------------------------------|
||o--4----------4-------4--------4----------|
||---6----------6-------6--------6----------|
|
|    PM------|                   PM------|
|               |-3--|  |--3--|
|    S  S  S  S E  E E  E  E  E  S  S  S  S
||--------------9h13p9----------------------|
||o----------11--------11----------------11-|
||--------10--------------10----------10----|
||-----11--------------------11----11-------|
||o-13--------------------------13----------|
||------------------------------------------|


 --------|                    PM            PM---------------|
  Q       Q        E     E    E    E        H                 H
|---------------------------------------||--------------------------------------|
|--------------------------------------o||--------------------------------------|
|---------------------------------------||--------------------------------------|
|---------------------------------------||--2-----------------2-----------------|
|-4-------4--------7p====4---------4---o||--2-----------------2-----------------|
|-6-------6-------------------6---------||--0-----------------0-----------------|
|
|--------|                    PM            PM---------------|
| Q       Q        E     E    E    E        H                 H
|---------------------------------------||--------------------------------------|
|--------------------------------------o||--------------------------------------|
|---------------------------------------||--------------------------------------|
|---------------------------------------||--2-----------------2-----------------|
|-4-------4--------7p====4---------4---o||--2-----------------2-----------------|
|-6-------6-------------------6---------||--0-----------------0-----------------|
|
|                  PM------|
| |-3--|  |--3--|             |--3---|      |--3--|  |--3--|  |--3--|  |--3--|
| E  E E  E  E  E  S  S  S  S E  E   E      E  E  E  E  E  E  E  E  E  E  E  E
|-9h13p9----------------------9h13p==9--||-12h13h16p13p12----12-----------------|
|--------11----------------11----------o||----------------15----15-13-12h13h15p=|
|-----------10----------10--------------||--------------------------------------|
|--------------11----11-----------------||--------------------------------------|
|-----------------13-------------------o||--------------------------------------|
|---------------------------------------||--------------------------------------|


   PM--------------------------------------
   H                 E    E     E    E
|-----------------------------------------|
|-----------------------------------------|
|-----------------------------------------|
|--2--------------------------------------|
|--2-----------------2----1-----2----3----|
|--0--------------------------------------|
|
|  PM--------------------------------------
|  H                 E    E     E    E
|-----------------------------------------|
|-----------------------------------------|
|-----------------------------------------|
|--2--------------------------------------|
|--2-----------------2----1-----2----3----|
|--0--------------------------------------|
|
|  |--3--|  |--3--|  |---3---|  |---3---|
|  E  E  E  E  E  E  E  E    E  E  E    E
|-----------------------------------------|
|-13p12----12------------------12-13---15-|
|-------14----14-13-10-13---14------------|
|-----------------------------------------|
|-----------------------------------------|
|-----------------------------------------|


 ----------------------------|
   Q        Q        Q        Q          E E E  E   E  E E  E
|-------------------------------------|-----------------------|
|-------------------------------------|-----------------------|
|-------------------------------------|-----------------------|
|-------------------------------------|--9-8-9-10---9--8-9-10-|
|--7--------7--------7--------7-------|-----------------------|
|--0--------0--------0--------0-------|-----------------------|
|
|----------------------------|
|  Q        Q        Q        Q          E E E  E   E  E E  E
|-------------------------------------|-----------------------|
|-------------------------------------|-----------------------|
|-------------------------------------|-----------------------|
|-------------------------------------|--9-8-9-10---9--8-9-10-|
|--7--------7--------7--------7-------|-----------------------|
|--0--------0--------0--------0-------|-----------------------|
|
|                                        ~~
|  |--3--|  |--3--|  |--3--|  |--3--|
|  E  E  E  E  E  E  E  E  E  E  E  E    H         +Q.      E
|-12h13h16-------------------13h16h17-|-22--------(22)s====12-|
|-------------------13-15-17----------|-----------------------|
|----------13-14-16-------------------|-----------------------|
|-------------------------------------|-----------------------|
|-------------------------------------|-----------------------|
|-------------------------------------|-----------------------|


   PM----------------------------------
   |--3--|  |--3--|  |--3--|  |--3--|
   E  E  E  E  E  E  E  E  E  E  E  E
|-------------------------------------|
|-------------------------------------|
|-------------------------------------|
|-------------------------------------|
|-10-10-10-10-10-10-10-10-10-10-10-10-|
|-------------------------------------|
|
|  PM----------------------------------
|  |--3--|  |--3--|  |--3--|  |--3--|
|  E  E  E  E  E  E  E  E  E  E  E  E
|-------------------------------------|
|-------------------------------------|
|-------------------------------------|
|--9--9--9--9--9--9--9--9--9--9--9--9-|
|-------------------------------------|
|-------------------------------------|
|
|  PM------|         T
|  |--3--|  |--3--|  |--3--|  |--3--|
|  E  E  E  E  E  E  E  E  E  E  E  E
|--------------7h10-15p10p=7----------|
|-----------8-----------------8-------|
|--------7-----------------------7----|
|-----9-----------------------------9-|
|-10----------------------------------|
|-------------------------------------|


                                 7/8
 ----------------|         PM
   |--3--|  |--3--|
   E  E  E  E  E  E  E  E  E  E    E  E  E  E  E  E  E
|-------------------------------|----------10-14-10-----||
|-------------------------------|-------12----------12--||
|-------------------------------|--7S11-----------------||
|-------------------11p=8-----8-|-----------------------||
|-10-10-10-10-10-10-------10----|-----------------------||
|-------------------------------|-----------------------||
|
|----------------|         PM
|  |--3--|  |--3--|
|  E  E  E  E  E  E  E  E  E  E    E  E  E  E  E  E  E
|-------------------------------|----------14-19-14-----||
|-------------------------------|-------15----------15--||
|-------------------------------|-11-16-----------------||
|--9--9--9--9--9--9-11p=8-----8-|-----------------------||
|-------------------------10----|-----------------------||
|-------------------------------|-----------------------||
|
|  PM------|         T
|  |--3--|  |--3--|
|  E  E  E  E  E  E  E  E  E  E    W
|--------------7h10-15p12p=9h10-|-----------------------||
|-----------8-------------------|-----------------------||
|--------7----------------------|-----------------------||
|-----9-------------------------|-----------------------||
|-10----------------------------|-----------------------||
|-------------------------------|-----------------------||


                                        D.S. al Coda
 4/4
                                      PM------------|
                             |--3--|
   E  E  E  E  E  E  E  E    E  E  E  E  E  E  E  E  E
|-12p=8-----8-------------|----------------------------|
|-------10----10----------|----------------------------|
|-----------------9-------|----------------------------|
|-------------------10----|----------------------------|
|----------------------12-|--8h12p=8-------------------|
|-------------------------|----------12-10--8--7--8-10-|
|
|                                     PM------------|
|                            |--3--|
|  E  E  E  E  E  E  E  E    E  E  E  E  E  E  E  E  E
|-17p12----12-------------|----------------------------|
|-------13----13----------|----------------------------|
|----------------14-------|----------------------------|
|-------------------14----|----------------------------|
|----------------------15-|-12-15-12-------------------|
|-------------------------|----------15-13-12-10-12-13-|


  &      D.C. al Dbl. Coda  &&
   PM    PM    PM
   E  E  E  E  E  E  E  E    E  E  E  E  E  E  E  E
|-------------------------|-12p=8-----8-------------|
|-------------------------|-------10----10----------|
|-----------------------9-|-----------------9-------|
|-----9----10-----9--8----|-------------------10----|
|--7-----7-----7----------|----------------------12-|
|-------------------------|-------------------------|
|
|        PM------|
|  E  E  E  E  E  E  Q       E  E  E  E  E  E  E  E
|-------------------------|-17p12----12-------------|
|-13s12-13-17-13-12-15\---|-------13----13----------|
|-------------------------|----------------14-------|
|-------------------------|-------------------14----|
|-------------------------|----------------------15-|
|-------------------------|-------------------------|


            PM------------|
   |--3--|
   E  E  E  E  E  E  E  E  E    E E H.
|----------------------------|------------*|
|----------------------------|------------*|
|----------------------------|--9---------*|
|----------------------------|--8---------*|
|--8h12p=8-------------------|--7---------*|
|----------12-10--8--7--8-10-|------------*|
|
|           PM------------|
|  |--3--|
|  E  E  E  E  E  E  E  E  E    E E H.
|----------------------------|------------*|
|----------------------------|------------*|
|----------------------------|-15---------*|
|----------------------------|-14---------*|
|-12-15-12-------------------|-13---------*|
|----------15-13-12-10-12-13-|------------*|


End.





Comments


Popular Necrophagist tabs & chords
Advanced Corpse Tumor Tabs
Diminished To B Tabs
Dismembered Self-immolation Tabs
Epitaph Tabs
Extreme Unction Tabs
Fermented Offal Discharge Tabs
Fermented Offal Discharge Intro Tabs
Intestinal Incubation Tabs
Seven Tabs
To Breathe In A Casket Tabs


Song lyrics



↑ Back to top | Tablatures and chords are parodies/interpretations of the original songs. You may use it for private study, scholarship, research or language learning purposes only
© 2014 AZChords.com Contact us | Privacy policy | DMCA | Add/correct tabs | Request tabs | Top 50 tabs