>
 >
Dismembered Self-immolation

Dismembered Self-immolation Guitar Tabs

Necrophagist - Dismembered Self-immolation chords, tabs, tablatures, lyrics

Guitar lessons | Add/correct | Request | Top 50 tabs Artists:  A B C D E F G H I J K L M N O P Q R S T U V W X Y Z 0-9

Dismembered Self-immolation Guitar Tabs – Necrophagist

CD, Sheet music, Poster

Do you like Dismembered Self-immolation? Share with your friends now
Tabs
=============================================================================
Artist - Necrophagist
Song - Dismembered Self-Immolation
Album - Onset Of Putrefication
=============================================================================


Tuning - All Strings 2 Steps Down - C standard.

 Intro
  Q=210
 4/4
  Gtr I
  PM------------|     PM-------------------------------|  PM------------|
|-----------------|-------------------------------|-------------------------|
|-----------------|-------------------------------|-------------------------|
|-----------------|-------------------------------|-------------------------|
|-----------------|-6-----------------------------|-3--2--2-3-4-5-3-4-5-6---|
|-5-4-3-5-4-3-6-5-|-6-----------------------------|-3--2--------------------|
|-3-2-1-3-2-1-4-3-|-4-4-4-4-4-4-4-4-4-4-4-4-4-4-4-|-1--0--------------------|
|
| Gtr II
| PM--------|
|-----------------|-------------------------------|-------------------------|
|-----------------|-------------------------------|-------------------------|
|-----------------|-------------------------------|-------------------------|
|-------------6p5-|-6-----------------------------|-------------------------|
|-5-4-3-5-4-3-----|-6-----------------------------|-------------------------|
|-3-2-1-3-2-1-----|-4-----------------------------|-------------------------|


|---------------------------------|
|---------------------------------|
|---------------------------------|
|-6-------------------------------|
|-6-------------------------------|
|-4-------------------------------|
|
| PM-------------------------------
|---------------------------------|
|---------------------------------|
|---------------------------------|
|---------------------------------|
|---------------------------------|
|-4-4-4-4-4-4-4-4-4-4-4-4-4-4-4-4-|


                         6/4
  PM-|  PM--------------------------|
|-----------------------|----------------------|
|-----------------------|----------------------|
|-----------------------|-------------6--------|
|-3--2--2-3-4-5-3-4-5-6-|-------------5--------|
|-3--2------------------|-5-4-3-5-4-3-3--------|
|-1--0------------------|----------------------|
|
|----|  PM--------------------------|
|-----------------------|----------------------|
|-----------------------|----------------------|
|-----------------------|-------------6--------|
|-3--2------------------|-------------5--------|
|-3--2------------------|-5-4-3-5-4-3-3--------|
|-1--0--5-4-3-2-6-5-4-3-|----------------------|


 Section 1
  Q=200
 4/4
  Gtrs I, II
  PM------------|               PM--------------------|
|-----------------------------|----------------------------|
|-----------------------------|----------------------------|
|-----------------------------|-------------------------5--|
|-----------------4h5p4-5h6p5-|-------------------------4--|
|-2-3-4-5-3-4-5-6-------------|-2-3-4-5-3-4-5-6-4-5-6-7----|
|-----------------------------|----------------------------|


  PM------------|               PM--------|
|-----------------------------|-------------------|
|-----------------------------|-------------------|
|-----------------------------|-------------------|
|-----------------4h5p4-5h6p5-|-------------6p5---|
|-2-3-4-5-3-4-5-6-------------|-5-4-3-5-4-3-------|
|-----------------------------|-------------------|


  PM------------|               PM--------------------|
|-----------------------------|----------------------------|
|-----------------------------|----------------------------|
|-----------------------------|-------------------------5--|
|-----------------4h5p4-5h6p5-|-------------------------4--|
|-2-3-4-5-3-4-5-6-------------|-2-3-4-5-3-4-5-6-4-5-6-7----|
|-----------------------------|----------------------------|


  PM------------|                PM----------------------------|
|-----------------------------|-----------------------------------|
|-----------------------------|-----------------------------------|
|-----------------------------|-----------------------------------|
|-----------------4h5p4-5h6p5-|-----------------------------------|
|-2-3-4-5-3-4-5-6-------------|--------------------------8-7-6-5--|
|-----------------------------|-10-9-8-7-9-8-7-6-8-7-6-5----------|


  PM------------|               PM--------------------|
|-----------------------------|----------------------------|
|-----------------------------|----------------------------|
|-----------------------------|-------------------------5--|
|-----------------4h5p4-5h6p5-|-------------------------4--|
|-2-3-4-5-3-4-5-6-------------|-2-3-4-5-3-4-5-6-4-5-6-7----|
|-----------------------------|----------------------------|


  PM------------|               PM--------|
|-----------------------------|-----------------|
|-----------------------------|-----------------|
|-----------------------------|-----------------|
|-----------------4h5p4-5h6p5-|-------------6p5-|
|-2-3-4-5-3-4-5-6-------------|-5-4-3-5-4-3-----|
|-----------------------------|-----------------|


  PM------------|               PM--------------------|
|-----------------------------|----------------------------|
|-----------------------------|----------------------------|
|-----------------------------|-------------------------5--|
|-----------------4h5p4-5h6p5-|-------------------------4--|
|-2-3-4-5-3-4-5-6-------------|-2-3-4-5-3-4-5-6-4-5-6-7----|
|-----------------------------|----------------------------|


  PM------------|               PM------|     PM--------|
|-----------------------------|------------------------------|
|-----------------------------|------------------------------|
|-----------------------------|------------------------------|
|-----------------4h5p4-5h6p5-|-------------3----------------|
|-2-3-4-5-3-4-5-6-------------|-2-2-3-4-5-5---4-3-6-5-4-3----|
|-----------------------------|------------------------------|


                         6/4
  PM-|  PM--------------------------|
|-----------------------|--------------------|
|-----------------------|--------------------|
|-----------------------|-------------6------|
|-3--2--2-3-4-5-5-4-3-2-|-------------5------|
|-3--2------------------|-5-4-3-5-4-3-4------|
|-1--0------------------|--------------------|


   Section 2
   4/4
      PM|   PM--------|      PM--------------------|
||----------------------|----------------------------|
||o---------------------|----------------------------|
||----------------------|-7--------------------------|
||----------------------|-6--------------------------|
||o-5-----5-----4-5-6-7-|-5--------------------------|
||----4-4---4-4---------|----4-4-4-4-4-4-4-4-4-4-4-4-|


                          Q=190
    PM|   PM--------|     PM----------|
|---------------------|------------------|
|---------------------|------------------|
|---------------------|-7----------------|
|---------------------|-6-6-6-6-6-6-6-6--|
|-5-----5-----4-5-6-7-|-5-6-6-6-6-6-6-6--|
|---4-4---4-4---------|---4-4-4-4-4-4-4--|


  Q=200
    PM|   PM--------|      PM--------------------|
|---------------------|----------------------------|
|---------------------|----------------------------|
|---------------------|-7--------------------------|
|---------------------|-6--------------------------|
|-5-----5-----4-5-6-7-|-5--------------------------|
|---4-4---4-4---------|----4-4-4-4-4-4-4-4-4-4-4-4-|


                       1.,2.               3.
    PM|   PM--------|     PM|   PM|           PM--|
|---------------------|------------------||------------------------|
|---------------------|-----------------o||------------------------|
|---------------------|------------------||-------------[6]S[7]----|
|---------------------|------------------||---------6h7------------|
|-5-----5-----4-5-6-7-|-7-----6-----5h6-o||-7----------------------|
|---4-4---4-4---------|---6-5---6-5------||---6-5-6----------------|


 Section 3
  PM-|  PM----------------------------|
|-----------------------||------------------|
|-----------------------||o-----------------|
|-----------------------||------------------|
|-3--2--4-5-6-7---------||--------------6-5-|
|-3--2----------6-5-4-3-||o-5-4-3-5-4-3-----|
|-1--0------------------||------------------|


                                6/4
  PM--------------------|        PM--------|
                              3x
|-----------------------------||----------------------|
|----------------------------o||----------------------|
|-------------------------6---||-------------6--------|
|-------------------------5---||-------------5--------|
|---------5-6-7-8---------4--o||-5-4-3-5-4-3-4--------|
|-4-5-6-7---------4-5-6-7-----||----------------------|


 Section 4
  $
 4/4
  Gtr I
    PM------|   PM--------|   PM--------------------|     PM------|   PM
|-----------------|-----------------|-----------------|------------------|
|-----------------|-----------------|-----------------|------------------|
|-----------------|-----------------|-----------------|------------------|
|-5-----------5---|---------5-------|-----------------|-5-----------5----|
|---3-4-3-4-3---3-|-4-3-4-3---3-4-3-|-4-3-4-3-2-3-2-1-|---3-4-3-4-3---3--|
|-----------------|-----------------|-----------------|------------------|
|
| Gtr II
|   PM------|   PM--------|                                           PM
|-----------------|-----------------|-----------------|------------------|
|-8-----------8---|---------8-------|-----------------|-8-----------8----|
|---5-6-5-6-5---5-|-6-5-6-5---5-6-5-|-6-5-6-5-4-5-4-3-|---5-6-5-6-5---5--|
|-----------------|-----------------|-----------------|------------------|
|-----------------|-----------------|-----------------|------------------|
|-----------------|-----------------|-----------------|------------------|


  PM----|   PM----------------|   PM----|
|-----------------|-------------------------|
|-----------------|-------------------------|
|-----------------|-------------4---------4-|
|---------5-------|-----6-5-4-3-3-6-5-4-3-3-|
|-4-3-4-3---3-4-3-|-4-3---------------------|
|-----------------|-------------------------|
|
| PM----|   PM----------------|   PM----|
|-----------------|-------------------------|
|---------8-------|-------------------------|
|-6-5-6-5---5-6-5-|-6-5---------4---------4-|
|-----------------|-----6-5-4-3-3-6-5-4-3-3-|
|-----------------|-------------------------|
|-----------------|-------------------------|


         PM------|     PM------|   PM
|------------------|------------------|
|------------------|------------------|
|-(4)--------------|------------------|
|-(3)--5-----------|-5-----------5----|
|--------3-4-3-4-3-|---3-4-3-4-3---3--|
|------------------|------------------|
|
|        PM------|     PM------|   PM
|------------------|------------------|
|------------------|------------------|
|-(4)--------------|------------------|
|-(3)--5-----------|-5-----------5----|
|--------3-4-3-4-3-|---3-4-3-4-3---3--|
|------------------|------------------|


  Gtrs I, II
  PM------------------------------|   PM------|
|-------------------------|---------------------|
|-------------------------|---------------------|
|-------------------------|---------------------|
|-------------------------|---------5-----------|
|-4-3-4-3-----------------|-----------3-4-3-4-3-|
|---------4-4-4-4-4-4-4-4-|-4-4-4-4-------------|


    PM------|   PM----------------|   PM|
|-----------------|------------------------|
|-----------------|------------------------|
|-----------------|-----------------4------|
|-5-----------5---|---------6-5-4-3-3-6-5--|
|---3-4-3-4-3---3-|-4-3-4-3----------------|
|-----------------|------------------------|


  PM|       PM--------|   PM------|
|-----------------|-----------------|
|-----------------|-----------------|
|-----4-----------|-----------------|
|-4-3-3---5-------|-----5-----------|
|-----------3-4-3-|-4-3---3-4-3-4-3-|
|-----------------|-----------------|


    PM--------------------------------|   PM--|
|---------------------|-------------------------|
|---------------------|-------------------------|
|---------------------|-------------------------|
|-5-------------------|-----------------5-------|
|---3-4-3-4-3---------|-------------------3-4-3-|
|-------------4-4-4-4-|-4-4-4-4-4-4-4-4---------|


                                             To Coda
                                         9/8
  PM|   PM------|     PM--------------|     PM----|
|-----------------|---------------------|--------------------|
|-----------------|---------------------|--------------------|
|-----------------|---------------------|-6----------4-------|
|-----5-----------|-5-----------6-5-4-3-|-5-6-5-4-3--3-------|
|-4-3---3-4-3-4-3-|---3-4-3-4-3---------|--------------------|
|-----------------|---------------------|--------------------|


 Section 5
 4/4
  Gtr I                 Gtr II          Gtrs
  PM----|     PM-----------------------------
|-----------------|-------------------------|
|-----------------|-------------------------|
|-----------------|-------------------------|
|-6-8-7-6-8S7-6-8-|-7-6-----------------6-8-|
|-6-8-7-6-8S7-6-8-|-7-6-5-6-7-8-5-6-7-8-6-8-|
|-4-6-5-4-6S5-4-6-|-5-4-----------------4-6-|


 I, II
 ---|     PM---------------------------|
|-----------------|------------------------|
|-----------------|------------------------|
|-----------------|------------------------|
|-7-6-8S7-6-8-7-6-|-5-6-7-8-5-6-7-8-3--2---|
|-7-6-8S7-6-8-7-6-|-----------------3--2---|
|-5-4-6S5-4-6-5-4-|-----------------1--0---|


 2/4                 4/4
  PM------------------------|     PM---
|-----------------||------------------|
|-----------------||o-----------------|
|-----------------||------------------|
|-----------------||------------------|
|-5-6-7-8-5-6-7-8-||o---------6p5-----|
|-----------------||--4-6-5-4-----4-6-|


                                             2/4
 -----------------------------|     PM----------------------|
                                                               4x
|-------------------------|-----------------|------------------||
|-------------------------|-----------------|-----------------o||
|-------------------------|-----------------|------------------||
|-------------------------|-----------------|-5-6-7-8-6-7-8-9--||
|-----5-6-7-8-6-7-8-9-----|-----6p5---------|-----------------o||
|-5-4-----------------4-6-|-5-4-----4-6-5-4-|------------------||


                           Section 6
                        Q=170
 4/4
  PM-|  PM-------------------------------------------
|-----------------------||--------------------------|
|-----------------------||o-------------------------|
|-----------------------||--------------------------|
|-3--2------------------||--3-2-2-3-4-5-3-2-2-3-4-5-|
|-3--2--5-6-7-8-6-7-8-9-||o-3-2---------3-2---------|
|-1--0------------------||--1-0---------1-0---------|


 -------------------|
                            4x
|---------------------------||
|--------------------------o||
|---------------------7-6---||
|-3-2-2-3-4-5-3-4-5-6-6-5---||
|-3-2----------------------o||
|-1-0-----------------------||


    PM-----------------------------------------------------
||--------------------------|-----------------------------|
||o-------------------------|-----------------------------|
||----------7-6---------7-6-|---------7-6-----------------|
||----------6-5---------6-5-|---------5-5-6-6-6-6-7-7-7-7-|
||o-4-5-6-7-----4-5-6-7-----|-4-5-6-7-----4-4-4-4-5-5-5-5-|
||--------------------------|-----------------------------|


 -------------------------------------------------|
|-------------------------|--------------------------------||
|-------------------------|-------------------------------o||
|---------9-8---------9-8-|---------9-8--------------------||
|---------8-7---------8-7-|---------8-7-------------[7]----||
|-5-6-7-8-----5-6-7-8-----|-5-6-7-8-------------5-5-------o||
|-------------------------|-------------4-4-4-4------------||


    PM------------------------------------------|
                                                       3x
||--------------------------|--------------------------||
||o-------------------------|-------------------------o||
||--------------------------|---------------------7-6--||
||--3-2-2-3-4-5-3-2-2-3-4-5-|-3-2-2-3-4-5-3-4-5-6-6-5--||
||o-3-2---------3-2---------|-3-2---------------------o||
||--1-0---------1-0---------|-1-0----------------------||


                           2/4
  PM----------------------------------|
|-------------------------|--------------|
|-------------------------|--------------|
|-------------------------|--------------|
|-3-2-2-3-4-5-3-2-2-3-4-5-|-3-2-2-3-4-5--|
|-3-2---------3-2---------|-3-2----------|
|-1-0---------1-0---------|-1-0----------|


 Section 3
  Q=200
 4/4
  PM-|  PM----------------------------|
|-----------------------||------------------|
|-----------------------||o-----------------|
|-----------------------||------------------|
|-3--2--2-3-4-5-5-4-3-2-||--------------6p5-|
|-3--2------------------||o-5-4-3-5-4-3-----|
|-1--0------------------||------------------|


                                               D.S.
                                6/4
  PM--------------------|        PM--------|
                              3x
|-----------------------------||--------------------|
|----------------------------o||--------------------|
|-------------------------6---||-------------6------|
|-------------------------5---||-------------5------|
|---------5-6-7-8---------4--o||-5-4-3-5-4-3-4------|
|-4-5-6-7---------4-5-6-7-----||--------------------|


  &
 4/4
  PM-|  PM------------|     PM------|
|-----------------------|-----------------|
|-----------------------|-----------------|
|-----------------------|-----------------|
|-3--2--2-3-4-5-3-4-5-6-|-----------------|
|-3--2------------------|-6-----------5h6-|
|-1--0------------------|---6-5-6-5-6-----|


   Section 2
      PM|   PM--------|      PM--------------------|
||----------------------|----------------------------|
||o---------------------|----------------------------|
||----------------------|-7--------------------------|
||----------------------|-6--------------------------|
||o-5-----5-----4-5-6-7-|-5--------------------------|
||----4-4---4-4---------|----4-4-4-4-4-4-4-4-4-4-4-4-|


                          Q=190
    PM|   PM--------|     PM----------|
|---------------------|-----------------|
|---------------------|-----------------|
|---------------------|-7---------------|
|---------------------|-6-6-6-6-6-6-6-6-|
|-5-----5-----4-5-6-7-|-5-6-6-6-6-6-6-6-|
|---4-4---4-4---------|---4-4-4-4-4-4-4-|


  Q=200
    PM|   PM--------|      PM--------------------|
|---------------------|----------------------------|
|---------------------|----------------------------|
|---------------------|-7--------------------------|
|---------------------|-6--------------------------|
|-5-----5-----4-5-6-7-|-5--------------------------|
|---4-4---4-4---------|----4-4-4-4-4-4-4-4-4-4-4-4-|


                       1.
    PM|   PM--------|     PM|   PM|
|---------------------|------------------||
|---------------------|-----------------o||
|---------------------|------------------||
|---------------------|------------------||
|-5-----5-----4-5-6-7-|-7-----6-----5h6-o||
|---4-4---4-4---------|---6-5---6-5------||


                       Section 3
 2.
    PM--|               PM-|  PM------------|
|---------------------|------------------------|
|---------------------|------------------------|
|-------------[6]S[7]-|------------------------|
|---------6h7---------|-3--2--2-3-4-5-5-4-3-2--|
|-7-------------------|-3--2-------------------|
|---6-5-6-------------|-1--0-------------------|


                                                    6/4
    PM--------|       PM--------------------|        PM--------|
                                                  3x
||------------------|-----------------------------||-------------------|
||o-----------------|----------------------------o||-------------------|
||------------------|-------------------------6---||-------------6-----|
||--------------6p5-|-------------------------5---||-------------5-----|
||o-5-4-3-5-4-3-----|---------5-6-7-8---------4--o||-5-4-3-5-4-3-4-----|
||------------------|-4-5-6-7---------4-5-6-7-----||-------------------|


 Outro
 4/4
  PM------------|               PM--------------------|
|-----------------------------|----------------------------|
|-----------------------------|----------------------------|
|-----------------------------|-------------------------5--|
|-----------------4h5p4-5h6p5-|-------------------------4--|
|-2-3-4-5-3-4-5-6-------------|-2-3-4-5-3-4-5-6-4-5-6-7----|
|-----------------------------|----------------------------|


  PM------------|               PM--------|
|-----------------------------|-------------------|
|-----------------------------|-------------------|
|-----------------------------|-------------------|
|-----------------4h5p4-5h6p5-|-------------6p5---|
|-2-3-4-5-3-4-5-6-------------|-5-4-3-5-4-3-------|
|-----------------------------|-------------------|


  PM------------|
|-----------------------------|
|-----------------------------|
|-----------------------------|
|-----------------4h5p4-5h6p5-|
|-2-3-4-5-3-4-5-6-------------|
|-----------------------------|


  PM--------------------|      PM------------|
|----------------------------|------------------------------|
|----------------------------|------------------------------|
|-------------------------5--|------------------------------|
|-------------------------4--|-----------------4h5p4-5h6p5--|
|-2-3-4-5-3-4-5-6-4-5-6-7----|-2-3-4-5-3-4-5-6--------------|
|----------------------------|------------------------------|


   PM----------------------------|
|----------------------------------|
|----------------------------------|
|----------------------------------|
|----------------------------------|
|--------------------------8-7-6-5-|
|-10-9-8-7-9-8-7-6-8-7-6-5---------|


                       9/8
    PM|   PM---------------|  PM----------|
|---------------------|-----------------------*|
|---------------------|-----------------------*|
|---------------------|-----------------------*|
|---------------------|-3--2--2-3-4-5-2-3-5---*|
|-8-----7-----5-6-7-8-|-3--2--------------3---*|
|---7-6---6-5---------|-1--0------------------*|

PM|- = Palm Mute
b    = Bend
h    = Hammer on
p    = Pull off
[]   = Artificial Harmonic
~    = vibrato
s    = Slide
()   = Tied Notes (Ignore them)
$    = Segno
&    = Coda





Comments


Popular Necrophagist tabs & chords
Mutilate The Stillborn Bass Tabs
Only Ash Remains Intro Bass Tabs
Advanced Corpse Tumor Tabs
Culinary Hyperversity Tabs
Diminished To B Tabs
Extreme Unction Tabs
Foul Body Autopsy Tabs
Mutilate The Stillborn Tabs
Only Ash Remains Tabs
Seven Tabs


Song lyrics



↑ Back to top | Tablatures and chords are parodies/interpretations of the original songs. You may use it for private study, scholarship, research or language learning purposes only
© 2014 AZChords.com Contact us | Privacy policy | DMCA | Add/correct tabs | Request tabs | Top 50 tabs