>
 >
Diminished To B

Diminished To B Guitar Tabs

Necrophagist - Diminished To B chords, tabs, tablatures, lyrics

Guitar lessons | Add/correct | Request | Top 50 tabs Artists:  A B C D E F G H I J K L M N O P Q R S T U V W X Y Z 0-9

Diminished To B Guitar Tabs – Necrophagist

CD, Sheet music, Poster

Do you like Diminished To B? Share with your friends now
Tabs
                                 DIMINISHED TO B
                           As recorded by Necrophagist
                          (From the 2004 Album EPITAPH)

Music by Muhammed Suicmez
Arranged by Muhammed Suicmez

Gtr I (D G C F A D) - 'Right Guitar'
Gtr II (D G C F A D) - 'Left Guitar'
Gtr III (D G C F A D) - 'Solo Guitar'
Gtr IV (D G C F A D) - 'Solo Harmony Guitar'

 Intro
  Q=224
 4/4
  Gtr I
|-------------------|-------------|-----------------|--------------------|
|-------------------|-------------|-----------------|--------------------|
|-------------------|-------------|-----------------|--------------------|
|-------------------|-------------|-----------------|--------------------|
|-------------5-7---|-8---5-------|-7-------5---7---|-7p3h5p3p2-7--------|
|-0-0-0-0h1S4-----0-|---0---1-----|---0-0-0---0---0-|-------------0-0-0--|
|
| Gtr II
|-------------------|-------------|-----------------|--------------------|
|-------------------|-------------|-----------------|--------------------|
|-------------------|-------------|-----------------|--------------------|
|---------------6---|-6---3-------|-----------------|--------------------|
|-------------8-----|-------------|-7-------5---7---|--------------------|
|-0-0-0-0-4-7-----0-|---0---4-----|---0-0-0---0---0-|-5-5-5-5h7h8-4-4-1--|


  Gtr I
|-----------------------|-----------------|-------------------|-------------|
|-----------------------|-----------------|-------------------|-------------|
|-----------------------|-----------------|-------------------|-------------|
|-----------------------|-----------------|---------------6---|-------------|
|-[5]-8--7-5--7--8--7-5-|-7-------5---7---|-7p3h5p3p2-7-------|-------5-----|
|-----------------------|---0-0-0---0---0-|-------------0---0-|-5-7-8-------|
|
| Gtr II
|-----------------------|-----------------|-------------------|-------------|
|-----------------------|-----------------|-------------------|-------------|
|-----------------------|-----------------|-------------------|-------------|
|-----------------------|-----------------|-------------------|-------------|
|--5--8-11-8-11-12-11-8-|-7-------5---7---|---------------7---|-0-5-7-8-----|
|-----------------------|---0-0-0---0---0-|-5-5-5-5h7-8-0---0-|-------------|


  Gtr I
|-----------------|-------------------|
|-----------------|-------------------|
|-----------------|-------------------|
|-----------------|-------------------|
|-7-------5---7---|-7p3h5p3p2-7-------|
|---0-0-0---0---0-|-------------0-0-0-|
|
| Gtr II
|-----------------|-------------------|
|-----------------|-------------------|
|-----------------|-------------------|
|-----------------|-------------------|
|-7-------5---7---|-------------------|
|---0-0-0---0---0-|-5-5-5-5h7h8-4-4-1-|


|-----------------------|------------------|
|-----------------------|------------------|
|-----------------------|------------------|
|-----------------------|------------------|
|-[5]-8--7-5--7--8--7-5-|-7-------5---7----|
|-----------------------|---0-0-0---0---0--|
|
|-----------------------|------------------|
|-----------------------|------------------|
|-----------------------|------------------|
|-----------------------|------------------|
|--5--8-11-8-11-12-11-8-|-7-------5---7----|
|-----------------------|---0-0-0---0---0--|


 7/4
  Gtr I
|--------------------------------|
|--------------------------------|
|--------------------------------|
|-----------7---7h10p7p6h7p6p3-6-|
|-7p3h5p3p2----------------------|
|-------------5------------------|
|
| Gtr II
|--------------------------------|
|--------------------------------|
|--------------------------------|
|--------------------------------|
|---------------8h11p8p7h8p7p5-8-|
|-5-5-5-5h7-8-5------------------|


 Riff B
 3/4
  Gtr I
                                                                        T
|---------------|-------------------|----------------|------------8-12-17--|
|---------------|-------------------|----------------|---------10----------|
|---------------|-------------------|----------------|-------9-------------|
|---------------|-------------------|----------------|----10---------------|
|---------------|-8-12-8----12p8----|--7----8-----11-|-12------------------|
|-0-0-0-0-0-0-0-|--------10------10-|----0----0-0----|---------------------|
|
| Gtr II
|                                                                       T
|---------------|-------------------|----------------|------------8-12-17--|
|---------------|-------------------|----------------|---------10----------|
|---------------|-------------------|----------------|-------9-------------|
|---------------|-------------------|----------------|----10---------------|
|---------------|-8-12-8----12p8----|-10---11-----11-|-12------------------|
|-0-0-0-0-0-0-0-|--------10------10-|----0----0-0----|---------------------|


                                      5/4
  Gtr I
|---------------|--------------------|----------------------|
|---------------|--------------------|----------------------|
|---------------|--------------------|----------------------|
|---------------|--------------------|-----2---2--------3---|
|---------------|-8-12-8----12-[11]--|---1---1---1---1----1-|
|-0-0-0-0-0-0-0-|--------10----------|-0-----------0--------|
|
| Gtr II
|---------------|--------------------|----------------------|
|---------------|--------------------|----------------------|
|---------------|--------------------|-----9---9-------10---|
|---------------|--------------------|---8---8---8---8----8-|
|---------------|-8-12-8----12-[11]--|-7-----------7--------|
|-0-0-0-0-0-0-0-|--------10----------|----------------------|


 3/4
  Gtr I
                                                                        T
|---------------|-------------------|----------------|------------8-12-17--|
|---------------|-------------------|----------------|---------10----------|
|---------------|-------------------|----------------|-------9-------------|
|---------------|-------------------|----------------|----10---------------|
|---------------|-8h12p8----12p8----|--7----8-----11-|-12------------------|
|-0-0-0-0-0-0-0-|--------10------10-|----0----0-0----|---------------------|
|
| Gtr II
|                                                                       T
|---------------|-------------------|----------------|------------8-12-17--|
|---------------|-------------------|----------------|---------10----------|
|---------------|-------------------|----------------|-------9-------------|
|---------------|-------------------|----------------|----10---------------|
|---------------|-8h12p8----12p8----|-10---11-----11-|-12------------------|
|-0-0-0-0-0-0-0-|--------10------10-|----0----0-0----|---------------------|


                                                Riff C
 3/4             9/8                            5/4
  Gtr I
|---------------|------------------------------|----------------------|
|---------------|------------------------------|----------------------|
|---------------|------------------------------|----------------------|
|---------------|------------------------------|-----2---2--------3---|
|---------------|-8-12-8----12-[11]b12----(11)-|---1---1---1---1----1-|
|-0-0-0-0-0-0-0-|--------10--------------------|-0-----------0--------|
|
| Gtr II
|---------------|------------------------------|----------------------|
|---------------|------------------------------|----------------------|
|---------------|------------------------------|-----9---9-------10---|
|---------------|---------------[9]b10-----(9)-|---8---8---8---8----8-|
|---------------|-8-12-8----12-----------------|-7-----------7--------|
|-0-0-0-0-0-0-0-|--------10--------------------|----------------------|


                                               6/4
  Gtr I
|----------------------|----------------------|---------------------------|
|----------------------|----------------------|---------------------------|
|----------------------|----------------------|---------------------------|
|-----2---2--------5---|-----2---2------------|-2--------2---2--------3---|
|---1---1---1---1----1-|---1---1---1---1--4-1-|----4-1-----1---1---1----1-|
|-0-----------0--------|-0-----------0--------|--------0---------0--------|
|
| Gtr II
|----------------------|----------------------|---------------------------|
|----------------------|----------------------|---------------------------|
|-----9---9-------12---|-----9---9------------|-9--------9---9-------10---|
|---8---8---8---8----8-|---8---8---8---8-11-8-|---11-8-----8---8---8----8-|
|-7-----------7--------|-7-----------7--------|--------7---------7--------|
|----------------------|----------------------|---------------------------|


                                                      Verse
 5/4                                          3/4
  Gtr I
|----------------------|---------------------|-------|----------------|
|----------------------|---------------------|-------|----------------|
|----------------------|----------------6--6-|-------|-----------[6]--|
|-----2---2--------5---|-----2-------5-------|-------|------[5]-------|
|---1---1---1---1----1-|---1---1--4----------|-------|-[4]------------|
|-0-----------0--------|-0-------------------|-------|----------------|
|
| Gtr II
|----------------------|---------------------|-------|----------------|
|----------------------|------------------14-|-------|----------------|
|-----9---9-------12---|-----9---------12----|-------|-----------[7]--|
|---8---8---8---8----8-|---8---8----11-------|-------|------[6]-------|
|-7-----------7--------|-7-------10----------|-------|-[5]------------|
|----------------------|---------------------|-------|----------------|


 4/4               5/4                   3/4              4/4
  Gtr I
|-----------------|---------------------|----------------|--------------------|
|-----------------|---------------------|----------------|--------------------|
|-----------------|---------------------|-----------[6]--|--------------------|
|-----------------|-------------9---9---|------[5]-------|--------------------|
|---------2-5-4-1-|-------------------5-|-[4]------------|---------10-7---8---|
|-0-0-0-0---------|-0-1-0-3-0-7---7-----|----------------|-0-0-0-0------0-----|
|
| Gtr II
|-----------------|---------------------|----------------|--------------------|
|-----------------|---------------------|----------------|--------------------|
|-----------------|---------------------|-----------[7]--|--------------------|
|-----------------|-------------3---3---|------[6]-------|--------------------|
|---------2-5-4-1-|-------------------2-|-[5]------------|--------------------|
|-0-0-0-0---------|-0-1-0-3-0-1---1-----|----------------|-0-0-0-0--3-4-0-1---|


  Gtr I
|-------------------|------------------|
|-------------------|------------------|
|-10---10---------7-|-------------[6]--|
|---------9-----9---|-[6]----[5]-------|
|----8------8-5-----|------------------|
|-------------------|------------------|
|
| Gtr II
|-------------------|------------------|
|-------------------|------------------|
|-----------------4-|-------------[7]--|
|--3----3-------6---|-[7]----[6]-------|
|---------2-5-2-----|------------------|
|----1--------------|------------------|


                   5/4
|-----------------|----------------------|
|-----------------|----------------------|
|-----------------|----------------------|
|-----------------|-------------9---9----|
|---------2-5-4-1-|-------------------5--|
|-0-0-0-0---------|-0-1-0-3-0-7---7------|
|
|-----------------|----------------------|
|-----------------|----------------------|
|-----------------|----------------------|
|-----------------|-------------3---3----|
|---------2-5-4-1-|-------------------2--|
|-0-0-0-0---------|-0-1-0-3-0-1---1------|


 3/4              4/4                3/4
  Gtr I
|----------------|------------------|---------------|
|----------------|------------------|---------------|
|-----------[6]--|------------------|-10-----10-----|
|------[5]-------|------------------|------9--------|
|-[4]------------|---------10-7---8-|----8------8-5-|
|----------------|-0-0-0-0------0---|---------------|
|
| Gtr II
|----------------|------------------|---------------|
|----------------|------------------|---------------|
|-----------[7]--|------------------|---------------|
|------[6]-------|------------------|--3------3-----|
|-[5]------------|------------------|---------------|
|----------------|-0-0-0-0--3-4-0-1-|----0-1----0-1-|


                  Chorus
   ~~~~~~~~~~~~~
|----------------|--------------------|
|----------------|--------------------|
|----------------|--------------------|
|-[6]----([6])\--|--------------------|
|----------------|--------------------|
|----------------|-0-0-0-0-0-0-0-0-0--|
|
|  ~~~~~~~~~~~~~
|----------------|--------------------|
|----------------|--------------------|
|----------------|--------------------|
|-[3]----([3])\--|--------------------|
|----------------|--------------------|
|----------------|-0-0-0-0-0-0-0-0-0--|


  Gtr I
|-----------------|--------------|--------------|--------------------|
|-----------------|--------------|--------------|--------------------|
|-----------------|--------------|--------------|--------------------|
|--------10---9---|-8------------|--5-----------|--------------------|
|-7-10-7----------|--------------|--------------|--------------------|
|-----------0---0-|---6-6-6-6--6-|----6-6-6-6-6-|-0-0-0-0-0-0-0-0-0--|
|
| Gtr II
|-----------------|--------------|--------------|--------------------|
|-----------------|--------------|--------------|--------------------|
|-----------------|--------------|--------------|--------------------|
|--------10---9---|-8---------11-|-11-----------|--------------------|
|-7-10-7----------|--------------|------------7-|--------------------|
|-----------0---0-|---6-6-6-6----|----9-9-9-9---|-0-0-0-0-0-0-0-0-0--|


                                 4/4             3/4
  Gtr I
|-----------------|-------------|---------------|-------------------|
|-----------------|-------------|---------------|-------------------|
|-----------------|-------------|---------------|-------------------|
|--------10---9---|-8-----------|---------------|-------------------|
|-7-10-7----------|-------------|-4---4-----4---|-------------------|
|-----------0---0-|---6-6-6-6-6-|---0---0-1-----|-0-0-0-0-0-0-0-0-0-|
|
| Gtr II
|-----------------|-------------|---------------|-------------------|
|-----------------|-------------|-8---8-----6---|-------------------|
|-----------------|-------------|---------------|-------------------|
|--------10---9---|-5-----------|---5---6-5-----|-------------------|
|-7-10-7----------|---4-4-4-4-7-|---------------|-------------------|
|-----------0---0-|-------------|---------------|-0-0-0-0-0-0-0-0-0-|


  Gtr I
|-----------------|--------------|--------------|--------------------|
|-----------------|--------------|--------------|--------------------|
|-----------------|--------------|--------------|--------------------|
|--------10---9---|-8------------|--5-----------|--------------------|
|-7-10-7----------|--------------|--------------|--------------------|
|-----------0---0-|---6-6-6-6--6-|----6-6-6-6-6-|-0-0-0-0-0-0-0-0-0--|
|
| Gtr II
|-----------------|--------------|--------------|--------------------|
|-----------------|--------------|--------------|--------------------|
|-----------------|--------------|--------------|--------------------|
|--------10---9---|-8---------11-|-11-----------|--------------------|
|-7-10-7----------|--------------|------------7-|--------------------|
|-----------0---0-|---6-6-6-6----|----9-9-9-9---|-0-0-0-0-0-0-0-0-0--|


                                                        Verse
                   5/4                    4/4           3/4
  Gtr I
|-----------------|----------------------|-------------|-----------------|
|-----------------|----------------------|-------------|-----------------|
|-----------------|----------------------|-------------|-----------[6]---|
|--------10---9---|--8-------5---5-----3-|----4----(4)-|------[5]--------|
|-7-10-7----------|----------------------|-------------|-[4]-------------|
|-----------0---0-|----6-6-6---6---0-1---|-------------|-----------------|
|
| Gtr II
|-----------------|----------------------|-------------|-----------------|
|-----------------|----------------------|-------------|-----------------|
|-----------------|----------------------|----4----(4)-|-----------[7]---|
|--------10---9---|----------2---2-------|----0----(0)-|------[6]--------|
|-7-10-7----------|-10-----------------5-|----2----(2)-|-[5]-------------|
|-----------0---0-|----9-9-9---3---0-3---|-------------|-----------------|


 4/4               5/4                   3/4              4/4
  Gtr I
|-----------------|---------------------|----------------|--------------------|
|-----------------|---------------------|----------------|--------------------|
|-----------------|---------------------|-----------[6]--|--------------------|
|-----------------|-------------9---9---|------[5]-------|--------------------|
|---------2-5-4-1-|-------------------5-|-[4]------------|---------10-7---8---|
|-0-0-0-0---------|-0-1-0-3-0-7---7-----|----------------|-0-0-0-0------0-----|
|
| Gtr II
|-----------------|---------------------|----------------|--------------------|
|-----------------|---------------------|----------------|--------------------|
|-----------------|---------------------|-----------[7]--|--------------------|
|-----------------|-------------3---3---|------[6]-------|--------------------|
|---------2-5-4-1-|-------------------2-|-[5]------------|--------------------|
|-0-0-0-0---------|-0-1-0-3-0-1---1-----|----------------|-0-0-0-0--3-4-0-1---|


  Gtr I
|-------------------|------------------|
|-------------------|------------------|
|-10---10---------7-|-------------[6]--|
|---------9-----9---|-[6]----[5]-------|
|----8------8-5-----|------------------|
|-------------------|------------------|
|
| Gtr II
|-------------------|------------------|
|-------------------|------------------|
|-----------------4-|-------------[7]--|
|--3----3-------6---|-[7]----[6]-------|
|---------2-5-2-----|------------------|
|----1--------------|------------------|


                   5/4
|-----------------|----------------------|
|-----------------|----------------------|
|-----------------|----------------------|
|-----------------|-------------9---9----|
|---------2-5-4-1-|-------------------5--|
|-0-0-0-0---------|-0-1-0-3-0-7---7------|
|
|-----------------|----------------------|
|-----------------|----------------------|
|-----------------|----------------------|
|-----------------|-------------3---3----|
|---------2-5-4-1-|-------------------2--|
|-0-0-0-0---------|-0-1-0-3-0-1---1------|


 3/4              4/4                3/4
  Gtr I
|----------------|------------------|---------------|
|----------------|------------------|---------------|
|-----------[6]--|------------------|-10-----10-----|
|------[5]-------|------------------|------9--------|
|-[4]------------|---------10-7---8-|----8------8-5-|
|----------------|-0-0-0-0------0---|---------------|
|
| Gtr II
|----------------|------------------|---------------|
|----------------|------------------|---------------|
|-----------[7]--|------------------|---------------|
|------[6]-------|------------------|--3------3-----|
|-[5]------------|------------------|---------------|
|----------------|-0-0-0-0--3-4-0-1-|----0-1----0-1-|


                  Chorus
   ~~~~~~~~~~~~~
|----------------|--------------------|
|----------------|--------------------|
|----------------|--------------------|
|-[6]----([6])\--|--------------------|
|----------------|--------------------|
|----------------|-0-0-0-0-0-0-0-0-0--|
|
|  ~~~~~~~~~~~~~
|----------------|--------------------|
|----------------|--------------------|
|----------------|--------------------|
|-[3]----([3])\--|--------------------|
|----------------|--------------------|
|----------------|-0-0-0-0-0-0-0-0-0--|


  Gtr I
|-----------------|--------------|--------------|--------------------|
|-----------------|--------------|--------------|--------------------|
|-----------------|--------------|--------------|--------------------|
|--------10---9---|-8------------|--5-----------|--------------------|
|-7-10-7----------|--------------|--------------|--------------------|
|-----------0---0-|---6-6-6-6--6-|----6-6-6-6-6-|-0-0-0-0-0-0-0-0-0--|
|
| Gtr II
|-----------------|--------------|--------------|--------------------|
|-----------------|--------------|--------------|--------------------|
|-----------------|--------------|--------------|--------------------|
|--------10---9---|-8---------11-|-11-----------|--------------------|
|-7-10-7----------|--------------|------------7-|--------------------|
|-----------0---0-|---6-6-6-6----|----9-9-9-9---|-0-0-0-0-0-0-0-0-0--|


                                 4/4             3/4
  Gtr I
|-----------------|-------------|---------------|-------------------|
|-----------------|-------------|---------------|-------------------|
|-----------------|-------------|---------------|-------------------|
|--------10---9---|-8-----------|---------------|-------------------|
|-7-10-7----------|-------------|-4---4-----4---|-------------------|
|-----------0---0-|---6-6-6-6-6-|---0---0-1-----|-0-0-0-0-0-0-0-0-0-|
|
| Gtr II
|-----------------|-------------|---------------|-------------------|
|-----------------|-------------|-8---8-----6---|-------------------|
|-----------------|-------------|---------------|-------------------|
|--------10---9---|-5-----------|---5---6-5-----|-------------------|
|-7-10-7----------|---4-4-4-4-7-|---------------|-------------------|
|-----------0---0-|-------------|---------------|-0-0-0-0-0-0-0-0-0-|


  Gtr I
|-----------------|--------------|--------------|--------------------|
|-----------------|--------------|--------------|--------------------|
|-----------------|--------------|--------------|--------------------|
|--------10---9---|-8------------|--5-----------|--------------------|
|-7-10-7----------|--------------|--------------|--------------------|
|-----------0---0-|---6-6-6-6--6-|----6-6-6-6-6-|-0-0-0-0-0-0-0-0-0--|
|
| Gtr II
|-----------------|--------------|--------------|--------------------|
|-----------------|--------------|--------------|--------------------|
|-----------------|--------------|--------------|--------------------|
|--------10---9---|-8---------11-|-11-----------|--------------------|
|-7-10-7----------|--------------|------------7-|--------------------|
|-----------0---0-|---6-6-6-6----|----9-9-9-9---|-0-0-0-0-0-0-0-0-0--|


                                              Riff H
                   7/4                        3/4
  Gtr I
|-----------------|--------------------------|-------------|--------------|
|-----------------|--------------------------|-------------|--------------|
|-----------------|--------------------------|-------------|--------------|
|--------10---9---|--8-------5---5-----3-----|-5---------3-|-5---------3--|
|-7-10-7----------|--------------------------|-------------|--------------|
|-----------0---0-|----6-6-6---6---0-1-------|---6-0-6-7---|---6-0-6-7----|
|
| Gtr II
|-----------------|--------------------------|-------------|--------------|
|-----------------|--------------------------|-------------|--------------|
|-----------------|--------------------------|-------------|--------------|
|--------10---9---|----------2---2-----------|-2---------0-|-2---------0--|
|-7-10-7----------|-10-----------------5-----|-------------|--------------|
|-----------0---0-|----9-9-9---3---0-3-------|---3-0-3-4---|---3-0-3-4----|


                                                        4/4
  Gtr I
|-------------|-------------|-------------|------------|-------------|
|-------------|-------------|-------------|------------|-------------|
|-------------|-------------|-------------|------------|-------------|
|-----------8-|-------------|-5---5-------|------------|----4----(4)-|
|-7---7-------|-7-----7-5-8-|-----------8-|--8-7-----8-|-------------|
|---6---0-6---|---0-0-------|---6---0-6---|------0-6---|-------------|
|
| Gtr II
|-------------|-------------|-------------|------------|-------------|
|-------------|-------------|-------------|------------|-------------|
|-------------|-------------|-------------|------------|----4----(4)-|
|-----------5-|-2-----5-3-6-|-2---2-------|--6-5-------|----0----(0)-|
|-7---7-------|-------------|-----------5-|----------5-|----2----(2)-|
|---6---0-3---|---0-0-------|---3---0-3---|------4-3---|-------------|


 3/4           2/4     3/4
  Gtr I
|-------------|-------|-------------|-------------|--------------|
|-------------|-------|-------------|-------------|--------------|
|-------------|-------|-------------|-------------|--------------|
|-----------5-|-------|-5---------3-|-5---------3-|-----------8--|
|-7---7---4---|-----7-|-------------|-------------|-7---7--------|
|---0---3-----|-0-4---|---6-0-6-7---|---6-0-6-7---|---6---0-6----|
|
| Gtr II
|-------------|-------|-------------|-------------|--------------|
|-------------|-------|-------------|-------------|--------------|
|-------------|-------|-------------|-------------|--------------|
|-2---2-----2-|-------|-2---------0-|-2---------0-|-----------5--|
|---------1---|-----4-|-------------|-------------|-7---7--------|
|---0---0-----|-0-1---|---3-0-3-4---|---3-0-3-4---|---6---0-3----|


                                           Riff I
                             4/4           3/4
  Gtr I
|-------------|-------------|-------------|--------|------------|
|-------------|-------------|-------------|--------|------------|
|-------------|-------------|-------------|--------|------------|
|-------------|-5---5-------|----4----(4)-|-3------|-(3)--------|
|-7-----7-5-8-|-----------8-|-------------|-1------|-(1)--------|
|---0-0-------|---6---0-6---|-------------|--------|--------0---|
|
| Gtr II
|-------------|-------------|-------------|--------|------------|
|-------------|-------------|-------------|--------|------------|
|-------------|-------------|----4----(4)-|--------|------------|
|-2-----5-3-6-|-2---2-------|----0----(0)-|--------|------------|
|-------------|-----------5-|----2----(2)-|-1------|-(1)--------|
|---0-0-------|---3---0-3---|-------------|-1------|-(1)----0---|


                         5/4                 3/4
  Gtr I
|-------0---|-(0)----0--|-(0)------(0)------|--------|------------|
|-----6-----|--------5--|-(5)------(5)------|--------|------------|
|---7-------|--------6--|-(6)------(6)------|--------|------------|
|-7---------|--------6--|-(6)------(6)------|-3------|-(3)--------|
|-----------|-----------|-------------------|-1------|-(1)--------|
|-----------|-----------|--------------7\---|--------|--------0---|
|
| Gtr II
|-------0---|-(0)----0--|-(0)------(0)------|--------|------------|
|-----6-----|--------5--|-(5)------(5)------|--------|------------|
|---7-------|--------6--|-(6)------(6)------|--------|------------|
|-7---------|--------6--|-(6)------(6)------|--------|------------|
|-----------|-----------|-------------------|-1------|-(1)--------|
|-----------|-----------|--------------7\---|-1------|-(1)----0---|


                         5/4               3/4
  Gtr I
|-------0---|-(0)----0--|-(0)------(0)----|--------|------------|
|-----6-----|--------5--|-(5)------(5)----|--------|------------|
|---7-------|--------6--|-(6)------(6)----|--------|------------|
|-7---------|--------6--|-(6)------(6)----|-3------|-(3)--------|
|-----------|-----------|-----------------|-1------|-(1)--------|
|-----------|-----------|-----------------|--------|--------0---|
|
| Gtr II
|-------0---|-(0)----0--|-(0)------(0)----|--------|------------|
|-----6-----|--------5--|-(5)------(5)----|--------|------------|
|---7-------|--------6--|-(6)------(6)----|--------|------------|
|-7---------|--------6--|-(6)------(6)----|--------|------------|
|-----------|-----------|-----------------|-1------|-(1)--------|
|-----------|-----------|-----------------|-1------|-(1)----0---|


                         5/4                 3/4
  Gtr I
|-------0---|-(0)----0--|-(0)------(0)------|--------|------------|
|-----6-----|--------5--|-(5)------(5)------|--------|------------|
|---7-------|--------6--|-(6)------(6)------|--------|------------|
|-7---------|--------6--|-(6)------(6)------|-3------|-(3)--------|
|-----------|-----------|-------------------|-1------|-(1)--------|
|-----------|-----------|--------------7\---|--------|--------0---|
|
| Gtr II
|-------0---|-(0)----0--|-(0)------(0)------|--------|------------|
|-----6-----|--------5--|-(5)------(5)------|--------|------------|
|---7-------|--------6--|-(6)------(6)------|--------|------------|
|-7---------|--------6--|-(6)------(6)------|--------|------------|
|-----------|-----------|-------------------|-1------|-(1)--------|
|-----------|-----------|--------------7\---|-1------|-(1)----0---|


                         6/4
  Gtr I
|-------0---|-(0)----0--|-(0)------(0)----|
|-----6-----|--------5--|-(5)------(5)----|
|---7-------|--------6--|-(6)------(6)----|
|-7---------|--------6--|-(6)------(6)----|
|-----------|-----------|-----------------|
|-----------|-----------|-----------------|
|
| Gtr II
|-------0---|-(0)----0--|-(0)------(0)----|
|-----6-----|--------5--|-(5)------(5)----|
|---7-------|--------6--|-(6)------(6)----|
|-7---------|--------6--|-(6)------(6)----|
|-----------|-----------|-----------------|
|-----------|-----------|-----------------|


 Solo
  Q=208
 4/4
  Gtrs I, II
|-------------------------------|--------------------------------------|
|-------------------------------|--------------------------------------|
|-------------------------------|--------------------------------------|
|-7-----------------------------|-(7)----------------------------------|
|-5-----------------------------|-(5)----------------------------------|
|-------------------------------|--------------------------------------|
|
| Gtr III
|----------------13h16p13-------|-----13h17h22p16p13h16p13----13-------|
|-------------15----------15----|-15-----------------------15----15----|
|----------14----------------14-|-----------------------------------13-|
|-------15----------------------|--------------------------------------|
|----17-------------------------|--------------------------------------|
|-------------------------------|--------------------------------------|


|-------------------------------------|--------------------|
|-------------------------------------|--------------------|
|-------------------------------------|--------------------|
|-(7)-------------------------7-------|-(7)----------------|
|-(5)-------------------------5-------|-(5)----------------|
|-------------------------------------|--------------------|
|
|                    T
|----------------16-22p16p13h16p13----|--------------------|
|-------------15-------------------15-|-17b18------17pb18--|
|-14h15p14p13-------------------------|--------------------|
|-------------------------------------|--------------------|
|-------------------------------------|--------------------|
|-------------------------------------|--------------------|


  Gtrs I, II
|-------------|------------|
|-------------|------------|
|-------------|------------|
|--6----------|-(6)--------|
|--4----------|-(4)--------|
|-------------|------------|
|
| Gtr III
|                ~~~~~~~~~~~
|-------------|------------|
|-17------14--|-14---------|
|-------------|------------|
|-------------|------------|
|-------------|------------|
|-------------|------------|


|----------------------------------|-----------------------|
|----------------------------------|-----------------------|
|----------------------------------|-----------------------|
|--(6)---6-------------------------|-(6)-------------------|
|--(4)---4-------------------------|-(4)-------------------|
|----------------------------------|-----------------------|
|
|~~~~~~
|-------------12h16p12-------------|-----------12-16-12----|
|-(14)-----14----------14----------|--------14-------------|
|-------13----------------13-------|-----13----------------|
|----------------------------14----|-14--------------------|
|-------------------------------16-|-----------------------|
|----------------------------------|-----------------------|


  Gtrs I, II
|-------------------------------------|--------------------------------------|
|-------------------------------------|--------------------------------------|
|-------------------------------------|--------------------------------------|
|--7----------------------------------|-(7)----------------------------------|
|--5----------------------------------|-(5)----------------------------------|
|-------------------------------------|--------------------------------------|
|
| Gtr III
|-15-17-18-17-15----------------------|--------------------------------------|
|----------------18-17-15-------------|-----------14-15-17-15-14-15-14-------|
|-------------------------18-15-14-15-|-12--14-15----------------------15-17-|
|-------------------------------------|--------------------------------------|
|-------------------------------------|--------------------------------------|
|-------------------------------------|--------------------------------------|


|--------------------------------------|------------------------------------|
|--------------------------------------|------------------------------------|
|--------------------------------------|------------------------------------|
|-(7)--------------------------7-------|-(7)--------------------------------|
|-(5)--------------------------5-------|-(5)--------------------------------|
|--------------------------------------|------------------------------------|
|
|               T                         T
|--------13h17-22p17p13----------------|-24p18p17p15------------------------|
|-----15----------------15-------------|-------------18-17-15---------------|
|-14-----------------------14----14-15-|----------------------18-15-14b15r==|
|-----------------------------15-------|------------------------------------|
|--------------------------------------|------------------------------------|
|--------------------------------------|------------------------------------|


  Gtrs I, II
|-------------------------------------|-------------------------------------|
|-------------------------------------|-------------------------------------|
|-------------------------------------|-------------------------------------|
|--6----------------------------------|-(6)---------------------------------|
|--4----------------------------------|-(4)---------------------------------|
|-------------------------------------|-------------------------------------|
|
| Gtr III
|                                                          T
|-------12h15p12----12h15s18p15----15h|=18s21p18----18h21-24p21p18h21p18s15h|
|----------------14-------------17----|----------20-------------------------|
|-12h15-------------------------------|-------------------------------------|
|-------------------------------------|-------------------------------------|
|-------------------------------------|-------------------------------------|
|-------------------------------------|-------------------------------------|


|-------------------------------------|----------------------------------------|
|-------------------------------------|----------------------------------------|
|-------------------------------------|----------------------------------------|
|-(6)-------6-------------------------|-(6)------------------------------------|
|-(4)-------4-------------------------|-(4)------------------------------------|
|-------------------------------------|----------------------------------------|
|
|                          T             T
|-18p15----------15s18h21-24p21p18h21-|-24p21p18h21p18-17-18-17-16-17-16-13----|
|-------------------------------------|----------------------------------------|
|-------18p15h18----------------------|----------------------------------------|
|-------------------------------------|----------------------------------------|
|-------------------------------------|----------------------------------------|
|-------------------------------------|----------------------------------------|


  Gtrs I, II
|----------------------|---------------------------|
|----------------------|---------------------------|
|----------------------|---------------------------|
|--7-------------------|-(7)-----------------------|
|--5-------------------|-(5)-----------------------|
|----------------------|---------------------------|
|
| Gtr III
|                         T
|-17-13-12-13-17-13----|-22p17p13h17p13--------17--|
|----------------------|----------------15---------|
|----------------------|-------------------14------|
|----------------------|---------------------------|
|----------------------|---------------------------|
|----------------------|---------------------------|
|
| Gtr IV
|                         T
|----------------------|-17p13p10h13p10--------13--|
|----------------------|----------------10---------|
|----------------------|-------------------10------|
|----------------------|---------------------------|
|----------------------|---------------------------|
|----------------------|---------------------------|


|--------------------|--------|
|--------------------|--------|
|--------------------|--------|
|-(7)-------------7--|-(7)----|
|-(5)-------------5--|-(5)----|
|--------------------|--------|
|
|                       ~~~
|-17b18r===20b22r====|=20-----|
|--------------------|--------|
|--------------------|--------|
|--------------------|--------|
|--------------------|--------|
|--------------------|--------|
|
|                       ~~~
|-13b14r===17b19r====|=17-----|
|--------------------|--------|
|--------------------|--------|
|--------------------|--------|
|--------------------|--------|
|--------------------|--------|


  Gtrs I, II
|--------------------|----------------------|
|--------------------|----------------------|
|--------------------|----------------------|
|--6-----------------|--(6)-----------------|
|--4-----------------|--(4)-----------------|
|--------------------|----------------------|
|
|--------------------|-------12--12b13--12--|
|-14b15------14pb15r=|=(14)-----------------|
|--------------------|----------------------|
|--------------------|----------------------|
|--------------------|----------------------|
|--------------------|----------------------|


|---------------------|--------------------------------------|
|---------------------|--------------------------------------|
|---------------------|--------------------------------------|
|--(6)--6-------------|-(6)----------------------------------|
|--(4)--4-------------|-(4)----------------------------------|
|---------------------|--------------------------------------|
|
|                        T
|-(12)-------15h18h21-|-24p21p18h21p18p15h18p15----15h18h21--|
|---------------------|--------------------------------------|
|---------------------|-------------------------18-----------|
|---------------------|--------------------------------------|
|---------------------|--------------------------------------|
|---------------------|--------------------------------------|


  Gtrs I, II
|-------------------------------------|
|-------------------------------------|
|-------------------------------------|
|--7----------------------------------|
|--5----------------------------------|
|-------------------------------------|
|
| Gtr III
|-22-18-17----18-17-21-18-17----------|
|----------20----------------20-18-17-|
|-------------------------------------|
|-------------------------------------|
|-------------------------------------|
|-------------------------------------|


|------------------------------|--------------------|----------------|
|------------------------------|--------------------|----------------|
|------------------------------|--------------------|----------------|
|-(7)--------------------------|-(7)-----------7----|-(7)------------|
|-(5)--------------------------|-(5)-----------5----|-(5)------------|
|------------------------------|--------------------|----------------|
|
|                                           ~~
|-----------15-17-16----17-----|--------------------|----------------|
|-15--17-18----------18----18--|-18--17-18-17-------|----------------|
|------------------------------|-----------------15-|-14----12-14----|
|------------------------------|--------------------|----------------|
|------------------------------|--------------------|----------------|
|------------------------------|--------------------|----------------|


  Gtrs I, II
|-------------------------------------|-------------------------------------|
|-------------------------------------|-------------------------------------|
|-------------------------------------|-------------------------------------|
|--6----------------------------------|-(6)---------------------------------|
|--4----------------------------------|-(4)---------------------------------|
|-------------------------------------|-------------------------------------|
|
| Gtr III
|-------------------------16p12-------|-------15h18p15----15s16h21p16-------|
|-------14h17p14----14h17-------14----|-14h17----------17-------------20p17-|
|-12h15----------15----------------15-|-------------------------------------|
|-------------------------------------|-------------------------------------|
|-------------------------------------|-------------------------------------|
|-------------------------------------|-------------------------------------|


|----------------------------|--------------------------|
|----------------------------|--------------------------|
|----------------------------|--------------------------|
|-(6)---6--------------------|-(6)----------------------|
|-(4)---4--------------------|-(4)----------------------|
|----------------------------|--------------------------|
|
|                    T
|------------12h15--21p16p15h|=16p15p12h15p12-----------|
|---------14-----------------|----------------14--------|
|-18---12--------------------|-------------------12\----|
|----------------------------|--------------------------|
|----------------------------|--------------------------|
|----------------------------|--------------------------|


                                          Riff K
  Q=224
                       7/8                3/4
  Gtr I
|---------------------|------------------|-----------|-----------|
|---------------------|------------------|-----------|-----------|
|---------------------|------------------|-----------|-----------|
|--7------------------|--(7)------(7)----|---3-------|-(3)-------|
|--5------------------|--(5)------(5)----|---1-------|-(1)-------|
|---------------------|------------------|-----------|--------0--|
|
| Gtr II
|---------------------|------------------|-----------|-----------|
|---------------------|------------------|-----------|-----------|
|---------------------|------------------|-----------|-----------|
|--7------------------|--(7)------(7)----|-----------|-----------|
|--5------------------|--(5)------(5)----|---1-------|-(1)-------|
|---------------------|------------------|---1-------|-(1)----0--|
|
| Gtr III
|          \7
|          ~~~~~~~~~~~~~~~~~~~~~~~~~~~~~~~~~~~~~
|-22b24===22pb24------|-(22)------22pb24-|-(22)------|-----------|
|---------------------|------------------|-----------|-----------|
|---------------------|------------------|-----------|-----------|
|---------------------|------------------|-----------|-----------|
|---------------------|------------------|-----------|-----------|
|---------------------|------------------|-----------|-----------|


                         5/4                 3/4
  Gtr I
|-------0---|-(0)----0--|-(0)------(0)------|--------|------------|
|-----6-----|--------5--|-(5)------(5)------|--------|------------|
|---7-------|--------6--|-(6)------(6)------|--------|------------|
|-7---------|--------6--|-(6)------(6)------|-3------|-(3)--------|
|-----------|-----------|-------------------|-1------|-(1)--------|
|-----------|-----------|--------------7\---|--------|--------0---|
|
| Gtr II
|-------0---|-(0)----0--|-(0)------(0)------|--------|------------|
|-----6-----|--------5--|-(5)------(5)------|--------|------------|
|---7-------|--------6--|-(6)------(6)------|--------|------------|
|-7---------|--------6--|-(6)------(6)------|--------|------------|
|-----------|-----------|-------------------|-1------|-(1)--------|
|-----------|-----------|--------------7\---|-1------|-(1)----0---|


                         5/4               3/4
  Gtr I
|-------0---|-(0)----0--|-(0)------(0)----|--------|------------|
|-----6-----|--------5--|-(5)------(5)----|--------|------------|
|---7-------|--------6--|-(6)------(6)----|--------|------------|
|-7---------|--------6--|-(6)------(6)----|-3------|-(3)--------|
|-----------|-----------|-----------------|-1------|-(1)--------|
|-----------|-----------|-----------------|--------|--------0---|
|
| Gtr II
|-------0---|-(0)----0--|-(0)------(0)----|--------|------------|
|-----6-----|--------5--|-(5)------(5)----|--------|------------|
|---7-------|--------6--|-(6)------(6)----|--------|------------|
|-7---------|--------6--|-(6)------(6)----|--------|------------|
|-----------|-----------|-----------------|-1------|-(1)--------|
|-----------|-----------|-----------------|-1------|-(1)----0---|


                         5/4                 3/4
  Gtr I
|-------0---|-(0)----0--|-(0)------(0)------|--------|------------|
|-----6-----|--------5--|-(5)------(5)------|--------|------------|
|---7-------|--------6--|-(6)------(6)------|--------|------------|
|-7---------|--------6--|-(6)------(6)------|-3------|-(3)--------|
|-----------|-----------|-------------------|-1------|-(1)--------|
|-----------|-----------|--------------7\---|--------|--------0---|
|
| Gtr II
|-------0---|-(0)----0--|-(0)------(0)------|--------|------------|
|-----6-----|--------5--|-(5)------(5)------|--------|------------|
|---7-------|--------6--|-(6)------(6)------|--------|------------|
|-7---------|--------6--|-(6)------(6)------|--------|------------|
|-----------|-----------|-------------------|-1------|-(1)--------|
|-----------|-----------|--------------7\---|-1------|-(1)----0---|


                         6/4                 3/4
  Gtr I
|-------0---|-(0)----0--|-(0)------(0)------|-------------|--------------|
|-----6-----|--------5--|-(5)------(5)------|-------------|--------------|
|---7-------|--------6--|-(6)------(6)------|-------------|--------------|
|-7---------|--------6--|-(6)------(6)------|-5---------3-|-5---------3--|
|-----------|-----------|-------------------|-------------|--------------|
|-----------|-----------|-------------------|---6-0-6-7---|---6-0-6-7----|
|
| Gtr II
|-------0---|-(0)----0--|-(0)------(0)------|-------------|--------------|
|-----6-----|--------5--|-(5)------(5)------|-------------|--------------|
|---7-------|--------6--|-(6)------(6)------|-------------|--------------|
|-7---------|--------6--|-(6)------(6)------|-2---------0-|-2---------0--|
|-----------|-----------|-------------------|-------------|--------------|
|-----------|-----------|-------------------|---3-0-3-4---|---3-0-3-4----|


                                                        4/4
  Gtr I
|-------------|-------------|-------------|------------|-------------|
|-------------|-------------|-------------|------------|-------------|
|-------------|-------------|-------------|------------|-------------|
|-----------8-|-------------|-5---5-------|------------|----4----(4)-|
|-7---7-------|-7-----7-5-8-|-----------8-|--8-7-----8-|-------------|
|---6---0-6---|---0-0-------|---6---0-6---|------0-6---|-------------|
|
| Gtr II
|-------------|-------------|-------------|------------|-------------|
|-------------|-------------|-------------|------------|-------------|
|-------------|-------------|-------------|------------|----4----(4)-|
|-----------5-|-2-----5-3-6-|-2---2-------|--6-5-------|----0----(0)-|
|-7---7-------|-------------|-----------5-|----------5-|----2----(2)-|
|---6---0-3---|---0-0-------|---3---0-3---|------4-3---|-------------|


 3/4           2/4     3/4
  Gtr I
|-------------|-------|-------------|-------------|--------------|
|-------------|-------|-------------|-------------|--------------|
|-------------|-------|-------------|-------------|--------------|
|-----------5-|-------|-5---------3-|-5---------3-|-----------8--|
|-7---7---4---|-----7-|-------------|-------------|-7---7--------|
|---0---3-----|-0-4---|---6-0-6-7---|---6-0-6-7---|---6---0-6----|
|
| Gtr II
|-------------|-------|-------------|-------------|--------------|
|-------------|-------|-------------|-------------|--------------|
|-------------|-------|-------------|-------------|--------------|
|-2---2-----2-|-------|-2---------0-|-2---------0-|-----------5--|
|---------1---|-----4-|-------------|-------------|-7---7--------|
|---0---0-----|-0-1---|---3-0-3-4---|---3-0-3-4---|---6---0-3----|


                             4/4           3/4
|-------------|-------------|-------------|-----------------|
|-------------|-------------|-------------|-----------------|
|-------------|-------------|-------------|-----------[6]---|
|-------------|-5---5-------|----4----(4)-|------[5]--------|
|-7-----7-5-8-|-----------8-|-------------|-[4]-------------|
|---0-0-------|---6---0-6---|-------------|-----------------|
|
|-------------|-------------|-------------|-----------------|
|-------------|-------------|-------------|-----------------|
|-------------|-------------|----4----(4)-|-----------[7]---|
|-2-----5-3-6-|-2---2-------|----0----(0)-|------[6]--------|
|-------------|-----------5-|----2----(2)-|-[5]-------------|
|---0-0-------|---3---0-3---|-------------|-----------------|


 4/4               5/4                   3/4              4/4
  Gtr I
|-----------------|---------------------|----------------|--------------------|
|-----------------|---------------------|----------------|--------------------|
|-----------------|---------------------|-----------[6]--|--------------------|
|-----------------|-------------9---9---|------[5]-------|--------------------|
|---------2-5-4-1-|-------------------5-|-[4]------------|---------10-7---8---|
|-0-0-0-0---------|-0-1-0-3-0-7---7-----|----------------|-0-0-0-0------0-----|
|
| Gtr II
|-----------------|---------------------|----------------|--------------------|
|-----------------|---------------------|----------------|--------------------|
|-----------------|---------------------|-----------[7]--|--------------------|
|-----------------|-------------3---3---|------[6]-------|--------------------|
|---------2-5-4-1-|-------------------2-|-[5]------------|--------------------|
|-0-0-0-0---------|-0-1-0-3-0-1---1-----|----------------|-0-0-0-0--3-4-0-1---|


  Gtr I
|-------------------|------------------|
|-------------------|------------------|
|-10---10---------7-|-------------[6]--|
|---------9-----9---|-[6]----[5]-------|
|----8------8-5-----|------------------|
|-------------------|------------------|
|
| Gtr II
|-------------------|------------------|
|-------------------|------------------|
|-----------------4-|-------------[7]--|
|--3----3-------6---|-[7]----[6]-------|
|---------2-5-2-----|------------------|
|----1--------------|------------------|


                   5/4
|-----------------|----------------------|
|-----------------|----------------------|
|-----------------|----------------------|
|-----------------|-------------9---9----|
|---------2-5-4-1-|-------------------5--|
|-0-0-0-0---------|-0-1-0-3-0-7---7------|
|
|-----------------|----------------------|
|-----------------|----------------------|
|-----------------|----------------------|
|-----------------|-------------3---3----|
|---------2-5-4-1-|-------------------2--|
|-0-0-0-0---------|-0-1-0-3-0-1---1------|


 3/4              4/4                3/4
  Gtr I
|----------------|------------------|---------------|
|----------------|------------------|---------------|
|-----------[6]--|------------------|-10-----10-----|
|------[5]-------|------------------|------9--------|
|-[4]------------|---------10-7---8-|----8------8-5-|
|----------------|-0-0-0-0------0---|---------------|
|
| Gtr II
|----------------|------------------|---------------|
|----------------|------------------|---------------|
|-----------[7]--|------------------|---------------|
|------[6]-------|------------------|--3------3-----|
|-[5]------------|------------------|---------------|
|----------------|-0-0-0-0--3-4-0-1-|----0-1----0-1-|


                  Chorus
   ~~~~~~~~~~~~~
|----------------|--------------------|
|----------------|--------------------|
|----------------|--------------------|
|-[6]----([6])\--|--------------------|
|----------------|--------------------|
|----------------|-0-0-0-0-0-0-0-0-0--|
|
|  ~~~~~~~~~~~~~
|----------------|--------------------|
|----------------|--------------------|
|----------------|--------------------|
|-[3]----([3])\--|--------------------|
|----------------|--------------------|
|----------------|-0-0-0-0-0-0-0-0-0--|


  Gtr I
|-----------------|--------------|--------------|--------------------|
|-----------------|--------------|--------------|--------------------|
|-----------------|--------------|--------------|--------------------|
|--------10---9---|-8------------|--5-----------|--------------------|
|-7-10-7----------|--------------|--------------|--------------------|
|-----------0---0-|---6-6-6-6--6-|----6-6-6-6-6-|-0-0-0-0-0-0-0-0-0--|
|
| Gtr II
|-----------------|--------------|--------------|--------------------|
|-----------------|--------------|--------------|--------------------|
|-----------------|--------------|--------------|--------------------|
|--------10---9---|-8---------11-|-11-----------|--------------------|
|-7-10-7----------|--------------|------------7-|--------------------|
|-----------0---0-|---6-6-6-6----|----9-9-9-9---|-0-0-0-0-0-0-0-0-0--|


                                 4/4             3/4
  Gtr I
|-----------------|-------------|---------------|-------------------|
|-----------------|-------------|---------------|-------------------|
|-----------------|-------------|---------------|-------------------|
|--------10---9---|-8-----------|---------------|-------------------|
|-7-10-7----------|-------------|-4---4-----4---|-------------------|
|-----------0---0-|---6-6-6-6-6-|---0---0-1-----|-0-0-0-0-0-0-0-0-0-|
|
| Gtr II
|-----------------|-------------|---------------|-------------------|
|-----------------|-------------|-8---8-----6---|-------------------|
|-----------------|-------------|---------------|-------------------|
|--------10---9---|-5-----------|---5---6-5-----|-------------------|
|-7-10-7----------|---4-4-4-4-7-|---------------|-------------------|
|-----------0---0-|-------------|---------------|-0-0-0-0-0-0-0-0-0-|


  Gtr I
|-----------------|--------------|--------------|--------------------|
|-----------------|--------------|--------------|--------------------|
|-----------------|--------------|--------------|--------------------|
|--------10---9---|-8------------|--5-----------|--------------------|
|-7-10-7----------|--------------|--------------|--------------------|
|-----------0---0-|---6-6-6-6--6-|----6-6-6-6-6-|-0-0-0-0-0-0-0-0-0--|
|
| Gtr II
|-----------------|--------------|--------------|--------------------|
|-----------------|--------------|--------------|--------------------|
|-----------------|--------------|--------------|--------------------|
|--------10---9---|-8---------11-|-11-----------|--------------------|
|-7-10-7----------|--------------|------------7-|--------------------|
|-----------0---0-|---6-6-6-6----|----9-9-9-9---|-0-0-0-0-0-0-0-0-0--|


                   7/4                             5/4
  Gtr I
|-----------------|-------------------------------|-----------|
|-----------------|-------------------------------|-----------|
|-----------------|-------------------------------|-----------|
|--------10---9---|--8-------8--------------------|-----------|
|-7-10-7----------|-------------------8---7-----2-|-----------|
|-----------0---0-|----6-6-6---6-6-6----0---1-0---|-----------|
|
| Gtr II
|-----------------|-------------------------------|-----------|
|-----------------|-------------------------------|-----------|
|-----------------|------------------10---9-----7-|-----------|
|--------10---9---|----------8--------------------|-----------|
|-7-10-7----------|-10------------------7---8-7---|-----------|
|-----------0---0-|----9-9-9---6-6-6--------------|-----------|


   End Riff
    Q=176
   3/4
    Gtr I
||--------------|-------------|-------------|------------|
||o-------------|-------------|-------------|------------|
||--------------|-------------|-------------|------------|
||--6-------6---|-6-------6---|-6-------3---|-3-----2---3|
||o-------------|-------------|-------------|------------|
||----4-4-4---4-|---4-4-4---4-|---4-4-4---1-|---1-0---0--|
|
|   Gtr II
||--------------|-------------|-------------|------------|
||o-------------|-------------|-------------|------------|
||--------------|-------------|-------------|------------|
||--6-------6---|-6-------6---|-6-------3---|-3-----2---3|
||o-------------|-------------|-------------|------------|
||----4-4-4---4-|---4-4-4---4-|---4-4-4---1-|---1-0---0--|


  Gtr I
|-------------|-------------|-------------|----------|
|-------------|-------------|-------------|----------|
|-------------|-------------|-------------|----------|
|-6-------6---|-6-------6---|-6-------3---|-3--------|
|-------------|-------------|-------------|----------|
|---4-4-4---4-|---4-4-4---4-|---4-4-4---1-|---1-0----|
|
| Gtr II
|-------------|-------------|-------------|----------|
|-------------|-------------|-------------|----------|
|-------------|-------------|-------------|----------|
|-6-------6---|-6-------6---|-6-------3---|-3--------|
|-------------|-------------|-------------|----------|
|---4-4-4---4-|---4-4-4---4-|---4-4-4---1-|---1-0----|


  Gtr I
|-------------|-------------|-------------|--------------|
|-------------|-------------|-------------|--------------|
|-------------|-------------|-------------|--------------|
|-6-------6---|-6-------6---|-6-------3---|-3-----2---3--|
|-------------|-------------|-------------|--------------|
|---4-4-4---4-|---4-4-4---4-|---4-4-4---1-|---1-0---0----|
|
| Gtr II
|-------------|-------------|-------------|--------------|
|-------------|-------------|-------------|--------------|
|-------------|-------------|-------------|--------------|
|-3-------3---|-3-------3---|-3-------3---|-3-----2---3--|
|-------------|-------------|-------------|--------------|
|---1-1-1---1-|---1-1-1---1-|---1-1-1---1-|---1-0---0----|


  Gtr I
                                                      5x
|-------------|-------------|-------------|-----------||
|-------------|-------------|-------------|----------o||
|-------------|-------------|-------------|-----------||
|-6-------6---|-6-------6---|-6-------3---|-3---------||
|-------------|-------------|-------------|----------o||
|---4-4-4---4-|---4-4-4---4-|---4-4-4---1-|---1-0-----||
|
| Gtr II
|                                                     5x
|-------------|-------------|-------------|-----------||
|-------------|-------------|-------------|----------o||
|-------------|-------------|-------------|-----------||
|-3-------3---|-3-------3---|-3-------3---|-6---------||
|-------------|-------------|-------------|----------o||
|---1-1-1---1-|---1-1-1---1-|---1-1-1---1-|---4-0-----||


Tablature Legend
----------------
 h   - hammer-on
 p   - pull-off
 b   - bend
 pb  - pre-bend
 r   - bend release (if no number after the r, then release immediately)
 /\  - slide into or out of (from/to "nowhere")
 s   - legato slide
 S   - shift slide
  - natural harmonic
[n]  - artificial harmonic
n(n) - tapped harmonic
 ~   - vibrato
 tr  - trill
 T   - tap
 TP  - trem. picking
 PM  - palm muting
\n/  - tremolo bar dip; n = amount to dip
 \n  - tremolo bar down
 n/  - tremolo bar up
/n\  - tremolo bar inverted dip
 =   - hold bend; also acts as connecting device for hammers/pulls
 <>  - volume swell (louder/softer)
 x   - on rhythm slash represents muted slash
 o   - on rhythm slash represents single note slash

Misc Legend
-----------
 |  - bar
||  - double bar
||o - repeat start
o|| - repeat end
*|  - double bar (ending)
 :  - bar (freetime)
 $  - Segno
 &  - Coda
Tempo markers -  = BPM(8/16=s8/s16), where s8 = swing 8ths, s16 = swing 16ths





Comments


Popular Necrophagist tabs & chords
Mutilate The Stillborn Bass Tabs
Culinary Hyperversity Tabs
Dismembered Self-immolation Tabs
Fermented Offal Discharge Tabs
Foul Body Autopsy Tabs
Only Ash Remains Tabs
Only Ash Remains Intro Tabs
Stabwound Tabs
Stabwound 1 Tabs
To Breathe In A Casket Tabs


Song lyrics



↑ Back to top | Tablatures and chords are parodies/interpretations of the original songs. You may use it for private study, scholarship, research or language learning purposes only
© 2014 AZChords.com Contact us | Privacy policy | DMCA | Add/correct tabs | Request tabs | Top 50 tabs