» » »

Necrodeath, The Mark Of Dr. Z Bass tabs (ver.1)

Artists:  A B C D E F G H I J K L M N O P Q R S T U V W X Y Z # 

The Mark Of Dr. Z Bass tabs (ver.1)

Necrodeath Tabs
 Rating:
4/5 (4 votes)
The Mark Of Dr. Z lessons Tabs too difficult? Try these video lessons and learn fast
1
                The Mark of Dr. Z – Necrodeath
Intro:
G-----------|
D-----------|
A-----------| x2
E—0-1-0-555-|

Verse 1:
G------------------------------------------------------------|
D---------------------------------------------------------87-|
A-------------2-----------2--------------2-------------987---|x2
E-001001010101-00100101010-1-001001010101-0010010101010------|

Chorus:
G---------------------|
D---------------------|
A-----------------504-| x1
E-021—021—021—021-----|

Intro x4
Verse 1 x2
Chorus x1

Verse 2:
G------------------------------------------------|
D------------------------------------------------|
A---------------------50---------------------504-| x2
E-2000200020002000-021---2000200020002000-021----|

Verse 3:
G-----------------|
D-----------------|
A—7575757575------| x8
E-0----------2345-|

Bridge:
G-------------------|
D-------------------|
A-------------------|
E-00---00---00---00-|

Verse 3 x4

2° Bridge:
G------------|
D------------|
A----------1-| x4
E-00-00-00---|

Chorus x2

Outro:
G------|
D------|
A------|	
E-1----|
            
Submit corrections

comments powered by Disqus
↑ Back to top | Necrodeath Bass for The Mark Of Dr. Z. Lyrics for acoustic guitar and electric guitar. 1 Tablatures and chords are parodies/interpretations of the original songs. You may use it for private study, scholarship, research or language learning purposes only