» » »

Necrodeath, Red As Blood Tabs (ver.2)

Artists:  A B C D E F G H I J K L M N O P Q R S T U V W X Y Z # 

Red As Blood Tabs (ver.2)

Necrodeath Tabs
 Rating:
4/5 (4 votes)
Red As Blood lessons Tabs too difficult? Try these video lessons and learn fast
                TAB set by: John

- = 1/16


Riff 1
Time Signature: 6/4
Tempo: 1/4 = 130 bpm

|------------------------|
|------------------------|
|------------------------|
|8--8--8-9--9--9-0--0--0-| 0=10
|7--7--7-8--8--8-0--0--0-| 0=10
|----------------8--8--8-|
4 times


Riff 2
Time Signature: 4/4
Tempo: 1/4 = 100 bpm

|----------------|----------------|
|----------------|----------------|
|----------------|6--6--6-5--5--5-|
|2222----2222----|6--6--6-5--5--5-|
|222278--222278--|4--4--4-3--3--3-|
|0000----0000--78|4--4--4-3--3--3-|
4 times


Riff 3
Time Signature: 7/4
Tempo: 1/4 = 100 bpm

|----------------------------|
|----------------------------|
|----------------------------|
|----------------------------|
|22222222-7--2222222298--7-7-|
|222222228-8-22222222--98-8--|
|00000000----00000000--------|
6 times


Riff 4
Time Signature: 4/4
Tempo: 1/4 = 100 bpm


|----------------|----------------|----------------|
|----------------|----------------|----------------|
|----------------|----------------|----------------|
|5-------6---3---|2222----2222----|5-------6---3---|
|5-------6---3---|222278--22227---|5-------6---3---|
|3-------4---1---|0000----0000-6--|3-------4---1---|
1 time



Riff 5
Time Signature: 4/4
Tempo: 1/4 = 100 bpm

|----------------|----------------|----------------|
|----------------|----------------|----------------|
|----------------|6--6--6-5--5--5-|9--9--9-7--7--7-|
|2222----2222----|6--6--6-5--5--5-|9--9--9-7--7--7-|
|222278--222278--|4--4--4-3--3--3-|7--7--7-5--5--5-|
|0000----0000--78|4--4--4-3--3--3-|7--7--7-5--5--5-|
2 times


Riff 3 - 6 times
Riff 4 - 1 time
Riff 5 - 4 times


Riff 6
Time Signature: 4/4
Tempo: 1/4 = 116 bpm

|----------------|----------------|----------------|----------------|
|----------------|----------------|----------------|----------------|
|----------------|----------------|----------------|----------------|
|----------------|------------6---|----------------|------------7-6-|
|--------------78|------------6---|--------------78|------------7-6-|
|00000000100000--|0000000010004---|00000000100000--|0000000010005-4-|
3 times

Riff 4 - 1 time
Riff 6 - 3 times
Riff 4 - 1 time
Riff 5 - 4 times
Riff 3 - 1 time
            
Submit corrections

comments powered by Disqus
↑ Back to top | Necrodeath Tabs for Red As Blood. Lyrics for acoustic guitar and electric guitar. Tablatures and chords are parodies/interpretations of the original songs. You may use it for private study, scholarship, research or language learning purposes only