» » »

Necrodeath, Queen Of Desire Bass tabs (ver.1)

Artists:  A B C D E F G H I J K L M N O P Q R S T U V W X Y Z # 

Queen Of Desire Bass tabs (ver.1)

Necrodeath Tabs
 Rating:
4/5 (4 votes)
Queen Of Desire lessons Tabs too difficult? Try these video lessons and learn fast
                Queen of Desire – Necrodeath
Intro:
G----------------|
D----------------|
A----------------|
E-01-----01------|
Verse 1:
G----------------|
D----------------|
A------23---2323-| x8
E-01-10---10-----|

Chorus:
G----------------------|    |-----------|
D----------------------|    |-----------|
A-----2h3p2-2p3h2-2h3p2| x3 |-----------|
E-0--------------------|    |-5---2-5---|

Verse 1 x6
Chorus

Verse 2:
G---------------------|
D---------------------|
A----3p2---3---3p2-34-| x8
E-000---000-000-------|

Bridge:
G---------------|
D---------------|
A---------------| x2
E-1---5---9---0-|

Verse 1 x9
Chorus 2:
G---------------------------|    |-----------||
D---------------------------|    |-----------||
A---------2h3p2-2h3p2-2h3p2-| x3 |-----------|| x2
E-100-1000------------------|    |-5---2-5---||

Verse 2 x7
Outro:
G-------|
D-------|
A-------|
E-1-----| End
            
Submit corrections

comments powered by Disqus
↑ Back to top | Necrodeath Bass for Queen Of Desire. Lyrics for acoustic guitar and electric guitar. Tablatures and chords are parodies/interpretations of the original songs. You may use it for private study, scholarship, research or language learning purposes only