» » »

Necrodeath, Petition For Mercy Bass tabs (ver.1)

Artists:  A B C D E F G H I J K L M N O P Q R S T U V W X Y Z # 

Petition For Mercy Bass tabs (ver.1)

Necrodeath Tabs
Rating:
0/5 (0 votes)
Petition For Mercy lessons Tabs too difficult? Try these video lessons and learn fast
                Petition for Mercy – Necrodeath
Intro:
G----------------------------------|
D----------------------------------|
A----------333222111------------3--|
E-0-------0---------000333222111-3-|

Verse 1:
G-----------------------------------------|
D-----------------------------------------|
A-----------------333222111------------3--| x2
E-000333222111-000---------000333222111-3-|

Chorus:
G-----------|
D-----------|
A--------65-| x2
E-0-65-0----|

Verse 1
Chorus

Verse 2:
G-------------|    |------------------|
D-------------|    |------------------|
A-------------| x2 |------------------|
E-00-656565-0-|    |00-6565658-999993-|

Bridge:
G----------------|
D----------------|
A----------------| x3
E-00000000656666-|

Solo = Verse 1
Verse 1
Chorus
Verse 2
Bridge x7

Bass:
G----------------------|
D-------------------76-|
A----------------------| x4
E-05760505078-057605---|




Verse 3:
G-----------------------|
D-----------------------|
A-076076076-00-76076-00-| x2	
E-----------------------|

Bass x2
Intro
Bridge x3

Outro:
G----------|
D----------|
A-3—444340-|
E----------|

Bridge x3
Outro
            

comments powered by Disqus
↑ Back to top | Necrodeath Bass for Petition For Mercy. Lyrics for acoustic guitar and electric guitar. Tablatures and chords are parodies/interpretations of the original songs. You may use it for private study, scholarship, research or language learning purposes only