» » »

Perseverance Pays Bass tabs (ver.1)

Artists:  A B C D E F G H I J K L M N O P Q R S T U V W X Y Z # 

Perseverance Pays Bass tabs (ver.1)

Necrodeath
Rating:
0/5 (0 votes)

Hard to play? Try these video lessons and learn fast.
                PERSEVERANCE PAYS

Dal vivo la struttura del pezzo è invariata, rispetto al disco.

Intro solo chitarra

Al 4 di batteria tutti a tavoletta!

Riff A
|-----------|------------------|
|-----------|------------------|
|-----------|---------5-5------|X2
|-0----1----|-2---2-------5-4--|

Riff B
|--------------|   |-------|
|--------------|   |-------|
|------------3-|X3 |-------| tutto X2
|-0-0-0-1--1---|   |-3-2-1-|

Riff A X2

Riff B X2

Riff C (molto amico del Riff A)
|----------------------------|
|----------------------------|
|-------------------5-5------|X2
|-0----1-----2----------5-4--|

Stacco solo chitarra e batteria

Riff D (molto amico del Riff B)
|---------------|   |-------|
|---------------|   |-------|
|-------------3-|X3 |-------| tutto X4 (?)
|-0-0-0-0-1-1---|   |-3-2-1-|

Riff E (parente dell'intro di chitarra)
|-----------|-----------|
|-----------|-----------|
|---7-6---8-|---7-6-----|X4
|-0-----7---|-0-----7-6-|

Bridge
|-------------|
|-------------|
|-------------|
|-3---2---1---|

Riff F
|-------------|
|-------------|
|-----3-------|X8
|-0-1---0-1-2-|

Riff G (ho quasi finito l'alfabeto!)
|------------|------------|
|------2-1---|------2-3---|
|-0--------2-|-0--------3-|X4
|------------|------------|

Riff A X2

Riff B X4 con finale in levare.
            
Hard to play? Try these video lessons and learn fast. | Correct




comments powered by Disqus
↑ Back to top | Tablatures and chords are parodies/interpretations of the original songs. You may use it for private study, scholarship, research or language learning purposes only