» » »

Necrodeath, Mealy Mouthed Hypocrisy Bass tabs (ver.1)

Artists:  A B C D E F G H I J K L M N O P Q R S T U V W X Y Z # 

Mealy Mouthed Hypocrisy Bass tabs (ver.1)

Necrodeath Tabs
 Rating:
4/5 (4 votes)
Mealy Mouthed Hypocrisy lessons Tabs too difficult? Try these video lessons and learn fast
1
                Necrodeath – Mealy Mouthed Hypocrisy
Intro:
G---------------------------------------|       
D---------------------------------------| x 2 
A------------------------------8--------|       
E----------076507650765070-0765-0765-23-|      

 2° Intro:
G--------------------------------------------- |
D--------------------------------------------- |x2
A------------------------8p7h8p7h8p7---------- |
E-076507650765070-0765-----------------0765-23 |

Pre verse 1:
G--------------|
D--------------|
A--------------|
E----0-0-0-0-|

Verse 1:
G---------------------------------------------------------|
D---------------------------------------------------------|
A---------------------------------------------------------| x4
E-0000003p10000003p10000003p10000005----------------------|

Chorus:
G------------------------------|
D------------------------------|
A---2---23-2-------------------| x2
E----0-------0-11111111--------|

Verse 1 x2
Verse 2:
G------------------------------------------------------------|
D------------------------------------------------------------|
A------------------------------------------------------------| x4
E-0000003p10000003p10000003p1000000333-----------------------|

Chorus x4
2° Intro x2

Verse 3:
G-------------------------------------------------|
D-------------------------------------------------|
A---2-0---2-0-7-5------------------------8--------| x2
E-------0------------076507650765070-0765-0765-23-|


Verse 4:
G------------------------|
D------------------------|
A------------------------| x2
E-0-1---015631—8---------|

Chorus 2:
G-----------------------------------------------|
D-----------------------------------------------|
A-----------------------------------------------| x4
E-01-01-012563-11111111-88888888----------------|

Guitar… play with some 0
Chorus 2 x2
Chorus 1 x4

Outro:
G---------------------------|
D---------------------------|
A---------------------------|
E-076507650765070.----------| End.
 
            
Submit corrections

comments powered by Disqus
↑ Back to top | Necrodeath Bass for Mealy Mouthed Hypocrisy. Lyrics for acoustic guitar and electric guitar. 1 Tablatures and chords are parodies/interpretations of the original songs. You may use it for private study, scholarship, research or language learning purposes only