» » »

Necrodeath, Evidence From Beyond Bass tabs (ver.1)

Artists:  A B C D E F G H I J K L M N O P Q R S T U V W X Y Z # 

Evidence From Beyond Bass tabs (ver.1)

Necrodeath Tabs
 Rating:
4/5 (4 votes)
Evidence From Beyond lessons Tabs too difficult? Try these video lessons and learn fast
                Evidence from Beyond – Necrodeath
Intro (Guitar)

Chorus:
G--------|
D--------|
A--------| x4
E-0-2302-|

Verse 1:
G--------|
D--------|
A---30---| x8
E-0---32-|

Chorus

Pre-Verse 2:
G--------------------|-----------------|
D--------------------|-----------------|
A-------------101312-|----------101312-|
E-0---0---0----------|-00-00-00--------|

Verse 2:
G-------------------------------|
D-------------------------------|
A---1098---1098---1098---101312-| x2
E-00-----00----00-----00--------|

Bridge:
G----------------------|
D----------------------|
A----------------------| x6
E-00023000656000236521-|

Verse 2 x4
Verse 1 x4
Chorus
Verse 2 x4

Outro:
G-------------|
D-------------|
A------101312-| x2
E-0-0-0-------|
            
Submit corrections

comments powered by Disqus
↑ Back to top | Necrodeath Bass for Evidence From Beyond. Lyrics for acoustic guitar and electric guitar. Tablatures and chords are parodies/interpretations of the original songs. You may use it for private study, scholarship, research or language learning purposes only