» » »

Nebula, The Dagger Tabs (ver.1)

Artists:  A B C D E F G H I J K L M N O P Q R S T U V W X Y Z # 

The Dagger Tabs (ver.1)

Nebula Tabs
 Rating:
4/5 (4 votes)
The Dagger lessons Tabs too difficult? Try these video lessons and learn fast
1
                Artist - Nebula
Song- The Dagger
Album- Heavy Psych
Tuning-Whole step down (Dgcfad)
Distortion: Use a Fuzz 


h-Hammer on
p-pulloff
/-slide
x-Mute/dead note
b-Bend
rb-release bend
~-vibrato
.-palm muted

Key:Em 
listen to the song to get the timing

Intro/Verse
D|---------------------|---------------------|
A|---------------------|---------------------|
F|---------------------|---------2-2---2-2---|
C|-----4---4-2-------5-|-----4-------4-----4-|
G|-------------4-2-4---|---------------------|
D|-2-2-----------------|-2-2-----------------|

Sometimes u can leave out the 2nd part...

Chorus Part I (played with wah) 
D|------------------------|------------------------|
A|------------------------|------------------------|
F|*----------------------*|*----------------------*|
C|*----------------------*|*------------7---------*|
G|-------------5----------|--9-7-9-7-9------9-7-9--|
D|--7-5-7-5-7------7-5-7--|------------------------|

Chorus Part II                                       
D|-----------------------|-------------------------|------------------------------|
A|-----------------------|-------------------------|------------------------------|
F|-----------------------|-------------------------|-----11---11-9----------------|
C|--------------------10-|----------------------12-|---------------11-9-11-10-9-7-|
G|-------8----8-10-12----|-------10----10-12-14----|-9-9--------------------------|
D|-10-10---10------------|-12-12----12-------------|------------------------------|

D|----------------------------|-----------------------|-------|
A|----------------------------|-----------------------|-------|
F|-----11---11-9--------------|-----------------------|-------|
C|---------------11-9-11-10-9-|-like the first bar----|-7-7-9-|
G|-9-9------------------------|-----------------------|-7-7-9-|
D|----------------------------|-----------------------|-5-5-7-|

Ending 
D|-------------------|
A|-------------------|
F|---------11\9------|
C|-4-4-----11\9--9\7-|
G|-4-4------9\7--9\7-|
D|-2-2-----------7\5-|

Sctructure: 
Intro/Verse
Chorus Part I + II 
Intro/Verse 
Chorus Part I + II (3rd bar is played one octave deeper) 
Intro/Verse + Solo  
Ending + Solo 

Have fun! 
            
Submit corrections

comments powered by Disqus
↑ Back to top | Nebula Tabs for The Dagger. Lyrics for acoustic guitar and electric guitar. 1 Tablatures and chords are parodies/interpretations of the original songs. You may use it for private study, scholarship, research or language learning purposes only