>
 >
Sonic Titan

Sonic Titan Guitar Tabs

Nebula - Sonic Titan chords, tabs, tablatures, lyrics

Guitar lessons | Add/correct | Request | Top 50 tabs Artists:  A B C D E F G H I J K L M N O P Q R S T U V W X Y Z 0-9

Sonic Titan Guitar Tabs – Nebula

CD, Sheet music, Poster

Do you like Sonic Titan? Share with your friends now
Tabs
Artist - Nebula
Song- Sonic Titan
Album- Let It Burn
Tuning-Whole step down (Dgcfad)
Distortion: Use a Fuzz 


h-Hammer on
p-pulloff
/-slide
x-Mute/dead note
b-Bend
rb-release bend
~-vibrato
.-palm muted

I’ve only tabbed the rhythm guitar and intro lead-guitar – listen to the song to get the timing. 
Every “part” is one bar. 


Intro
I'm not sure about the 2nd bending...maybe it's a full bending...

D|--------------------------------|-----------------------------|
A|---------------15b16-15b16~~-15-|15b16rb15p12----12-----------|
F|-14b16-14b16~~------------------|-------------14-----14-14p12-|
G|--------------------------------|---------------------------14|
C|--------------------------------|-----------------------------|
D|--------------------------------|-----------------------------|

D|--------------------------------|-----------------------------|
A|---------------15b16-15b16~~-15-|15b16rb15p12-----12----------|
F|-14b16-14b16~~------------------|-------------14--12----------|
G|--------------------------------|-----------------------------|
C|--------------------------------|-----------------------------|
D|--------------------------------|-----------------------------|

Intro-Variation (different ending...)

D|--------------------------------|-----------------------------|
A|---------------15b16-15b16~~-15-|15b16rb15p12----12-----------|
F|-14b16-14b16~~------------------|-------------14-----14-14p12-|
G|--------------------------------|---------------------------14|
C|--------------------------------|-----------------------------|
D|--------------------------------|-----------------------------|
Do a slide at the end of the 2nd bar...
D|--------------------------------|-----------------------------------|
A|---------------15b16-15b16~~-15-|15p12----12-15p12----12-15p12------|
F|-14b16-14b16~~------------------|------14----------14----------14---|
G|--------------------------------|-----------------------------------|
C|--------------------------------|-----------------------------------|
D|--------------------------------|-----------------------------------|

Bridge

D|-------------------|------------------|------------------|----|
A|-------------------|------------------|------------------|----|
F|-9-9-9---9-9-12/11-|-9-9-9--9-9-14/12-|-9-9-9--9-9-12/14-|----|
G|-9-9-9---9-9-12/11-|-9-9-9--9-9-14/12-|-9-9-9--9-9-12/14-|----|
C|-7-7-7---7-7-10/12-|-7-7-7--7-7-12/10-|-7-7-7--7-7-10/12-|----|
D|-------------------|------------------|------------------|----|
   . .     . .         . .    . .         . .    . .

Verse

D|-----------------|-------------|
A|-----------------|-------------|
F|-7/9-9-x-7/9-9-x-|-7/9-9-x-7---|
G|-7/9-9-x-7/9-9-x-|-7/9-9-x-7-7-|
C|-5/7-7-x-5/7-7-x-|-5/7-7-x-5-7-|3x 
D|-----------------|-----------5-|  

D|----------------|--------|
A|----------------|--------|
F|-7/9-9---7/9----|-7---5--|
G|-7/9-9---7/9----|-7-7-5-5|
C|-5/7-7-x-5/7-7-x|-5-7-3-5|
D|----------------|---5---3|

Chorus

D|----------------|-------------|
A|----------------|-------------|
F|----------------|-----------5-|
G|-5/7-7-x-5/7-7-x|-5/7-7-x-5-5-|
C|-5/7-7-x-5/7-7-x|-5/7-7-x-5-3-|3x
D|-3/5-5-x-3/5-5-x|-3/5-5-x-3---|

D|----------------|-------------|
A|----------------|-------------|
F|----------------|-------------|
G|-5/7-7-x-5/7-7-x|-10-10-12-12-|
C|-5/7-7-x-5/7-7-x|-10-10-12-12-|
D|-3/5-5-x-3/5-5-x|-8--8--10-10-|





Structure:

Intro: 			3x
Intro-Variation: 	1x
Bridge: 		2x
Verse: 			1x
Chorus: 		1x 
Bridge:			2x
Verse:			1x
Chorus:			1x
Bridge: 		2x
Intro:			3x
Intro-variation:	1x
Solo...			
Bridge:			2x
Then there is a rather heavy part where the bridge-chords are played slowly - just 
listen to the song.
The rest is solo-guitar and/or psychedelic effect-shit.





Comments


Popular Nebula tabs & chords
Carpe Diem Tabs
Elevation Tabs
Giant Tabs
Giant 1 Tabs
Ignition Tabs
Let It Burn Tabs
To The Centre Tabs
Vulcan Bomber Tabs
Way To Venus Tabs
You Mean Nothing Tabs


Song lyrics



↑ Back to top | Tablatures and chords are parodies/interpretations of the original songs. You may use it for private study, scholarship, research or language learning purposes only
© 2014 AZChords.com Contact us | Privacy policy | DMCA | Add/correct tabs | Request tabs | Top 50 tabs