» » »

Nebula, Let It Burn Tabs (ver.2)

Artists:  A B C D E F G H I J K L M N O P Q R S T U V W X Y Z # 

Let It Burn Tabs (ver.2)

Nebula Tabs
Rating:
0/5 (0 votes)
Let It Burn lessons Tabs too difficult? Try these video lessons and learn fast
                Artist - Nebula
Song- Let It Burn
Album- Let It Burn Ep
Tuning-Whole step down (Dgcfad)
Distortion: Use a Fuzz 


h-Hammer on
p-pulloff
/-slide
x-Mute/dead note
b-Bend
rb-release bend
~-vibrato
.-palm muted

Annotations: 
-listen to the song to get the timing
-Key: Gm

Intro/Verse
[Maybe he plays single notes, im unsure about this...] 
D|---------------------|------------------------|
A|---------------------|------------------------|
F|------------5---xxxx-|--------5-------------5-|
C|-7-7-5/7-77-5-7-xxxx-|-5/7-77-5-7-----5-5h7---|
G|-7-7-5/7-77-3-7-xxxx-|-5/7-77-3-7-5h7---------|
D|-5-5-3/5-55---5-xxxx-|-3/5-55---5-------------|

Chorus

D|---------------|-------|---------------|--------------|
A|---------------|-------|---------------|--------------|
F|-7-7-xx-5-7-10-|-7-5-7-|-7-7-xx-5-7-10-|-7--121212-xx-|
C|-7-7-xx-5-7-10-|-7-5-7-|-7-7-xx-5-7-10-|-7--121212-xx-|
G|-5-5-xx-3-5-8--|-5-3-5-|-5-5-xx-3-5-8--|-5--101010-xx-|
D|---------------|-------|------------------------------|

Bridge I
[Its not 100% correct but sounds good ;)]
D|---------------------------------|----------------------------|
A|---------------------------------|----------------------------|
F|----5----5----5----5-------------|----5----5----7p5-----------|
C|----5----5----5----5----7b8rb7p5-|----5----5--------7-5-------|
G|-77---77---77---77---77----------|-77---77---77---------7-5-3-|
D|-55---55---55---55---55----------|-55---55---55---------------|
   ..   ..   ..   ..   ..            ..   ..   ..

Bridge II (Gm -> Am)

D|---------------------|------------------------|
A|---------------------|------------------------|
F|------------7---xxxx-|--------7-------------7-|
C|-9-9-7/9-99-7-9-xxxx-|-7/9-99-7-9-----7-7h9---|
G|-9-9-7/9-99-5-9-xxxx-|-7/9-99-5-9-7h9---------|
D|-7-7-5/7-77---7-xxxx-|-5/7-77---7-------------|

Structure: 

Intro/Verse 6x
Chorus 2x
Intro/Verse 6x
Chorus 2x
Intro/Chorus 2x
Bridge I 6x
Bridge II 4x
Bridge I 6x
Bridge II until song fades out
            
Submit corrections

comments powered by Disqus
↑ Back to top | Nebula Tabs for Let It Burn. Lyrics for acoustic guitar and electric guitar. Tablatures and chords are parodies/interpretations of the original songs. You may use it for private study, scholarship, research or language learning purposes only