» » »

Ignition Tabs (ver.1)

Artists:  A B C D E F G H I J K L M N O P Q R S T U V W X Y Z # 

Ignition Tabs (ver.1)

Nebula
Rating:
0/5 (0 votes)

Hard to play? Try these video lessons and learn fast.
                Artist - Nebula
Song- Ignition
Album- Charged
Tuning-Whole step down (Dgcfad)
Distortion: Use a Fuzz 


h-Hammer on
/-slide
x-Mute
~-Bend

I’ve only tabbed the rhythm guitar – listen to the song to get the timing.


Intro 
D|------------------|---------------------------|
A|------------------|---------------------------|
F|------------------|---------------------------|
C|-7777777777777777-|-7777777777-88-99-1010-1111|
G|-7777777777777777-|-7777777777-88-99-1010-1111|
D|-5555555555555555-|-5555555555-66-77-8-8--9-9-|


Just play a bit around with the last chords and add a slide in the end of the first bar

Theme I
D|-------------------|----------------|
A|-------------------|----------------|
F|-10----------------|-10-------------|
C|-10-1010-1010--12--|-10-1010-1010--7|
G|-8--1010-1010--12--|-8--1010-1010--7|
D|----8-8--8--8--10--|----8-8--8--8--5| 

Theme II 
D|-----------------------|
A|-----------------------|
F|-----------------------|
C|-10--7--5/7--10--7--5/7|
G|-10--7--5/7--10--7--5/7|
D|-8---5--3/5--8---5--3/5|

Theme IIa
D|-----------------------|
A|-----------------------|
F|-10--7--5/7--10--7--5/7|
C|-10--7--5/7--10--7--5/7|
G|-8---5--3/5--8---5--3/5|
D|-----------------------|

Theme III (over solo - actually played by bass...) 

D|-------------------|
A|-------------------|
F|-------------------|
C|-------------------|
G|-------------------|
D|-x-8-5-5-x-8-5-5---|

Structure: 

Intro: 		1x
Theme I: 	4x
Theme II:	8x
Theme IIa: 	2x
Theme II: 	2x
Theme I:	4x
Theme II:	8x
Theme IIa:	2x
Theme II:	2x
Theme I:	4x
Theme III: too often...
Theme I: 	4x
Theme II:  too often...until the songs fades out...
            
Hard to play? Try these video lessons and learn fast. | Correct




comments powered by Disqus
↑ Back to top | Tablatures and chords are parodies/interpretations of the original songs. You may use it for private study, scholarship, research or language learning purposes only