» » »

Fever Frey Tabs (ver.1)

Artists:  A B C D E F G H I J K L M N O P Q R S T U V W X Y Z # 

Fever Frey Tabs (ver.1)

Nebula
Rating:
0/5 (0 votes)

Tabs too difficult? Try these video lessons and learn fast.
                Band-Nebula
Song-Fever Frey
Album-Apollo
Tuning-All strings tuned down a full step (two frets). 
eg.  (DGCFAD)


Intro
|------------------|
|------------------|
|------------------|
|------------------|             Repeat this 4 times, it is played quickly
|-------3-------3--|
|-5-3-5---5-3-5----|


Verse Riff
|-------------------------------------------------------------|
|-------------------------------------------------------------|
|--8-8-8-8-----------9-9-9-9-8---------------5------------5---|
|--8-8-8-8--7-7-7-7--9-9-9-9-8--5--7-7-7-7-7-5--7-7-7-7-7-5---|
|--6-6-6-6--7-7-7-7--7-7-7-7-6--5--7-7-7-7-7-3--7-7-7-7-7-3---|
|-----------5-5-5-5-------------3--5-5-5-5-5----5-5-5-5-5-----|


Chorus (play the riff below twice, then the riff below it once)
|--------------------------------------------------------------|
|--------------------------------------------------------------|
|-9-9-9-9-9-9-9-9--7-7-7-7-7-7-7-7-------------5-------------5-|
|-9-9-9-9-9-9-9-9--7-7-7-7-7-7-7-7--7-7-7-7-7--5--7-7-7-7-7--5-| 
|-7-7-7-7-7-7-7-7--5-5-5-5-5-5-5-5--7-7-7-7-7--3--7-7-7-7-7--3-|
|-----------------------------------5-5-5-5-5-----5-5-5-5-5----|
“Fever frey………..he’s got the fever frey…..”

(on third time, play this)
|------------------------------------------------------------------------------|
|------------------------------------------------------------------------------|
|-9-9-9-9-9-9-9-9--7-7-7-7-7-7-7-7---------------------------------------------|                  
|-9-9-9-9-9-9-9-9--7-7-7-7-7-7-7-7--7-7-7-7-7--9-9-9-9-9-9-9-9-9-9-9-9-9-9-9-9-|
|-7-7-7-7-7-7-7-7--5-5-5-5-5-5-5-5--7-7-7-7-7--9-9-9-9-9-9-9-9-9-9-9-9-9-9-9-9-|
|-----------------------------------5-5-5-5-5--7-7-7-7-7-7-7-7-7-7-7-7-7-7-7-7-|
 “ Fever Frey…………………………                       ba ba ba ba ba ba ba ba”

After chorus riff
|---------------------------------|
|---------------------------------|
|--------------------------5---5--|
|-7-7-7-7-5-5-5-5-3-3-3-3--5---5--|
|-7-7-7-7-5-5-5-5-3-3-3-3--3---3--|                                
|-5-5-5-5-3-3-3-3-1-1-1-1---------|

Just listen to the song for the right rhythm, the song can be heard on the record
            
Tabs too difficult? Try these video lessons and learn fast.


comments powered by Disqus
↑ Back to top | Tablatures and chords are parodies/interpretations of the original songs. You may use it for private study, scholarship, research or language learning purposes only