» » »

Nebula, Aphrodite Tabs (ver.1)

Artists:  A B C D E F G H I J K L M N O P Q R S T U V W X Y Z # 

Aphrodite Tabs (ver.1)

Nebula Tabs
Rating:
0/5 (0 votes)
Aphrodite lessons Tabs too difficult? Try these video lessons and learn fast
                Artist - Nebula
Song- Aphrodite
Album- Heavy Psych
Tuning-Whole step down (Dgcfad)
Distortion: Use a Fuzz 


h-Hammer on
p-pulloff
/-slide
x-Mute/dead note
b-Bend
rb-release bend
~-vibrato
.-palm muted

Annotations: 
-listen to the song to get the timing
-i've only tabbed the rhythm guitar
-key: Bb-blues

Intro/Verse

D|---------------|----xx--------------|
A|---------------|----xx--------------|
F|----10/11\10-8-|----xx-10/11\10-8---|
C|-10-10/11\10-8-|-10-xx-10/11\10-8-8-|
G|-10-8-/9-\8--6-|-10-xx-8-/9-\8--6-8-|
D|-8-------------|-8--xx------------6-|

Intro-Bendings
   1       4        1    2 +          1
D|---------------|------------------|-------|
A|-8-------11----|-13------11-------|-8-----|
F|-10b12---13b15-|-15b17---13b15----|-10b12-|
C|---------------|------------------|-------|
G|---------------|------------------|-------|
D|---------------|------------------|-------|

Bridge/Chorus

D|-------------|---------|------------------|----------------------|
A|-------------|---------|------------------|----------------------|
F|-------------|---------|------8---------8-|---------8----------8-|
C|-66-66-66-66-|-66-66-7-|------8-10\8-10-8-|-10\8-10-8--10\8-10-8-|
G|-66-66-66-66-|-66-66-7-|-1010-6-10\8-10-6-|-10\8-10-6--10\8-10-6-|
D|-44-44-44-44-|-44-44-5-|-8-8----8-\6-8----|-8-\6-8-----8-\6-8----|

D|-------------|---------|
A|-------------|---------|
F|-------------|-----8---|
C|-66-66-66-66-|-8---8-8-|
G|-66-66-66-66-|-8---6-8-|
D|-44-44-44-44-|-6-----6-|

Structure: 

Intro/Verse 
Bridge/Chorus
Intro/Verse
Bridge/Chorus
...
            

comments powered by Disqus
↑ Back to top | Nebula Tabs for Aphrodite. Lyrics for acoustic guitar and electric guitar. Tablatures and chords are parodies/interpretations of the original songs. You may use it for private study, scholarship, research or language learning purposes only