» » »

Neal Mccoy, No Doubt About It Chords (ver.1)

Artists:  A B C D E F G H I J K L M N O P Q R S T U V W X Y Z # 

No Doubt About It Chords (ver.1)

Neal Mccoy Tabs
 Rating:
4.2/5 (5 votes)
No Doubt About It lessons Tabs too difficult? Try these video lessons and learn fast
                
Key of E
          A       E         B       E      A       E       B
Intro:  |----------------------------------------------------|
        |----------------------------------------------------|
        |----------------------------------------------------|
        |----------------------------------------------------|
/=slide |---------7---7-----9(10)-9-7--7h9---------7---7-9---|
        |-5-5-7/9---9---9-7----------------5-5-7/9---9-----7-|




(No chord)      A                    E
Just like every lock's got to have a key
            B                     E
Every river flows lookin' for the sea
                     A                          E
And when you plant a seed, it reaches for the sky
                        B                 E
That's just the way it is, nobody wonders why
                    A                           E            B
Like coffee needs a cup you know that it ain't much good without it
                      A                 E
We were meant to be together, no doubt about it.

                    A               E
Like a hammer and a nail, socks and shoes
                B                       E
We go hand in hand, like a rhythm and blues
                A                   E
What good is a man who hasn't got a dream
                   B            E
'Bout as good as a car with no gasoline
                            A                     E                 B
You're the one I'm dreamin' of, got to have your love, can't live
without it
                        A               E
We were meant to be together, no doubt about it.
         A              E
No there ain't no doubt about it.

B               E               A       E
Something was missing it was making me blue
    C#m         A         B
But all I ever needed was you.

(No chord)      A                    E
Just like every lock's got to have a key
            B                     E
Every river flows lookin' for the sea
                     A                          E
And when you plant a seed, it reaches for the sky
                        B                    E
That's just the way it is, girl with you and I
                    A                           E            B
Like coffee needs a cup you know that it ain't much good without it
                      A                 E
We were meant to be together, no doubt about it.
         A              E
No there ain't no doubt about it.

  A       E         B       E      A       E       B             E
|------------------------------------------------------------------|
|------------------------------------------------------------------|
|------------------------------------------------------------------|
|------------------------------------------------------------------|
|---------7---7-----9(10)-9-7--7h9---------7---7-9-----------------|
|-5-5-7/9---9---9-7----------------5-5-7/9---9-----9(10)-7-9-3(4)-0|

            A         E            B               A                  E

|---------------------------------------------------------------------------|
|------------------------------------------------------------------------12-|
|----------------------9-8--------------------------------------------11----|
|--------------------9-----11-9-11---------7-6---------------------11-------|
|-------------7-9/11---------------9-9-7-9-----9-7---7-9(10)-7---7----------|
|-3/5-5-5-7/9--------------------------------------9-----------9------------|

                    A               E
Like a hammer and a nail, socks and shoes
                B                       E
We go hand in hand, like a rhythm and blues
                A                   E
What good is a man who hasn't got a dream
                   B            E
'Bout as good as a car with no gasoline
                            A                     E                 B
You're the one I'm dreamin' of, got to have your love, can't live
without it
                        A               E
We were meant to be together, no doubt about it.
            
Submit corrections

comments powered by Disqus
↑ Back to top | Neal Mccoy Chords for No Doubt About It. Lyrics for acoustic guitar and electric guitar. Tablatures and chords are parodies/interpretations of the original songs. You may use it for private study, scholarship, research or language learning purposes only