» » »

Neal Mccoy, Billy's Got His Beer Goggles On Tabs (ver.1)

Artists:  A B C D E F G H I J K L M N O P Q R S T U V W X Y Z # 

Billy's Got His Beer Goggles On Tabs (ver.1)

Neal Mccoy Tabs
Rating:
0/5 (0 votes)
Billy's Got His Beer Goggles On lessons Tabs too difficult? Try these video lessons and learn fast
                -------------------------------------------------------------------------------
-------------------------------------------------------------------------------

Tuning:Standard

Intro
e|--------------------------------------------|
B|--------------------------------------------|
G|-----------------------xx---xx-----xx---xx--|
D|---xx-2-xx-3-xx-5-xx---xx-2-xx-3/7-xx-5-xx--|
A|-3-xx---xx---xx---xx-3----------------------|
E|--------------------------------------------|

then

e|---------------------------------|
B|---------------------------------|
G|---------------------------------|
D|---xx-2-xx-3-xx-5-xx------5------|
A|-3-xx---xx---xx---xx-3---------3-|
E|---------------------------------|

Play this when he talks

Riff 1
e|--------------------------------------------|
B|--------------------------------------------|
G|-----------------------xx---xx-----xx---xx--|
D|---xx-2-xx-3-xx-5-xx---xx-2-xx-~6b~xx-5-xx--|
A|-3-xx---xx---xx---xx-3----------------------|
E|--------------------------------------------|

then do these chords every 1/4 a measure in the chorus

C           Dm           F               G


| / slide-up
| x  Mute note
| ~b~ Bent Vibrato
===============================================================================
            
Submit corrections

comments powered by Disqus
↑ Back to top | Neal Mccoy Tabs for Billy's Got His Beer Goggles On. Lyrics for acoustic guitar and electric guitar. Tablatures and chords are parodies/interpretations of the original songs. You may use it for private study, scholarship, research or language learning purposes only