» » »

Broken Down Angel Tabs (ver.2)

Artists:  A B C D E F G H I J K L M N O P Q R S T U V W X Y Z # 

Broken Down Angel Tabs (ver.2)

Nazareth
Rating:
0/5 (0 votes)

Hard to play? Try these video lessons and learn fast.
                (Intro)
album:greatest hits


tuning:standard
legend:

    b - bend
    r - release bend
    ~ - let it ring

intro:

   guitar 2:

e|--------------------------------------------------------------------|--------|
B|--------------9-11~--12b-r-11-9-11b-r-------------------------------|--------|
G|--9b--r--9-11--------------------------12b-r-11-9-11b-r----12-11-9--|--9--7--|
D|---------------------------------------------------------9----------|--------|
A|--------------------------------------------------------------------|--------|
E|--------------------------------------------------------------------|--------|

[NOTE:just bend the strings a semitone,don't overbend :D]

   guitar 1:

e|---------------------------------|
B|---------------------------------|
G|--9~~-------9~~-------9~~--9~~---|
D|--9~~--9~~--9~~--9~~--9~~--9~~---|
A|--7~~--9~~--7~~--9~~--7~~--7~~---|
E|-------5~~-------7~~-------------|

__________________________________________________________________________________

uhh...okay,sorry for the inconvenience because i only tabbed out the intro part,
yeah it's quite good(the intro of the song)so i tabbed it...haha...well nazareth
maybe an old band,but there's something in them...they're good...okay that's all
enjoy!XD
__________________________________________________________________________________

your faith walks on broken glass
LONG LIVE EARTH!XD
            
Hard to play? Try these video lessons and learn fast. | Correct




comments powered by Disqus
↑ Back to top | Tablatures and chords are parodies/interpretations of the original songs. You may use it for private study, scholarship, research or language learning purposes only