» » »

Navarro Dave, Star Spangled Banner Tabs (ver.1)

Artists:  A B C D E F G H I J K L M N O P Q R S T U V W X Y Z # 

Star Spangled Banner Tabs (ver.1)

Navarro Dave Tabs
 Rating:
4/5 (4 votes)
Star Spangled Banner lessons Tabs too difficult? Try these video lessons and learn fast
                Tuning:standard

e|----------------------------------|
B|----------------------------------|
G|------------------9-7-------------|
D|---------------10-----10----------|
A|--10-7---7-10------------7-9-10---|
E|-------8--------------------------|

e|-----------------------------------|
B|-----------------------------------|
G|-------9-7-------------------------|
D|-----------10-9-7-9-10-10----------|
A|-10-10---------------------10-7----|
E|---------------------------------8-|

e|-----------------------------------|
B|-----------------------------------|
G|-----------------9-7---------------|
D|--------------10-----10------------|
A|---10-7--7-10-----------7-9-10-----|
E|--------8--------------------------|

e|-----------------------------------------|
B|-----------------------------------------|
G|-----------9-7---------------------------|
D|---------------10-9-7-9-10-10------------|
A|---10-10------------------------10-7-----|
E|-------------------------------------8---|

e|------------------------------------|
B|-----------8-8----------------------|
G|--9-9-9-10----10-9-7-9-10-10-10-9-7-|
D|------------------------------------|
A|------------------------------------|
E|------------------------------------|

e|------------------------------------|
B|------------------------------------|
G|------------------------------------|
D|----10-9-10-7-9-10------------------|
A|--------------------7-9-10----------|
E|------------------------------------|

e|------------------------------------|
B|------------------------------------|
G|-------------------------7-10-9-7---|
D|------10-10-10-9-7-7-7--------------|
A|---10-------------------------------|
E|------------------------------------|

e|--------------------------------------------|
B|---------------------------8----------------|
G|--------------------7-9-10-----7-9-10-7-----|
D|--10-10-9-------10----------10-----------10-|
A|----------10-10-----------------------------|
E|--------------------------------------------|


| /  slide up
| \  slide down
| h  hammer-on
| p  pull-off
| ~  vibrato
| +  harmonic
| x  Mute note

Play with distortion and chrous, there is a lote of emotional moments in this
piece you will know where they are and just let flow!
            
Submit corrections

comments powered by Disqus
↑ Back to top | Navarro Dave Tabs for Star Spangled Banner. Lyrics for acoustic guitar and electric guitar. Tablatures and chords are parodies/interpretations of the original songs. You may use it for private study, scholarship, research or language learning purposes only